ISO-10303-21;
HEADER;
/* Generated by software containing ST-Developer
 * from STEP Tools, Inc. (www.steptools.com) 
 */
/* OPTION: using custom schema-name function */

FILE_DESCRIPTION(
/* description */ (''),
/* implementation_level */ '2;1');

FILE_NAME(
/* name */ 'GETOUT_STAVE_111.stp',
/* time_stamp */ '2018-09-25T11:00:17+02:00',
/* author */ (''),
/* organization */ (''),
/* preprocessor_version */ 'ST-DEVELOPER v16.7',
/* originating_system */ 'SIEMENS PLM Software NX 12.0',
/* authorisation */ '');

FILE_SCHEMA (('AP203_CONFIGURATION_CONTROLLED_3D_DESIGN_OF_MECHANICAL_PARTS_AND_ASSEMBLIES_MIM_LF { 1 0 10303 403 2 1 2}'));
ENDSEC;

DATA;
#10=PROPERTY_DEFINITION_REPRESENTATION(#14,#12);
#11=PROPERTY_DEFINITION_REPRESENTATION(#15,#13);
#12=REPRESENTATION('',(#16),#657);
#13=REPRESENTATION('',(#17),#657);
#14=PROPERTY_DEFINITION('pmi validation property','',#89);
#15=PROPERTY_DEFINITION('pmi validation property','',#89);
#16=VALUE_REPRESENTATION_ITEM('number of annotations',COUNT_MEASURE(0.));
#17=VALUE_REPRESENTATION_ITEM('number of views',COUNT_MEASURE(0.));
#18=SHAPE_REPRESENTATION_RELATIONSHIP('None',
'relationship between turc4BE46F0Flnwl-None and turc4BE46F0Flnwl-None',
#100,#19);
#19=ADVANCED_BREP_SHAPE_REPRESENTATION('turc4BE46F0Flnwl-None',(#110),#657);
#20=CC_DESIGN_APPROVAL(#32,(#90));
#21=CC_DESIGN_APPROVAL(#33,(#92));
#22=CC_DESIGN_APPROVAL(#34,(#39));
#23=APPROVAL_PERSON_ORGANIZATION(#77,#32,#26);
#24=APPROVAL_PERSON_ORGANIZATION(#78,#33,#27);
#25=APPROVAL_PERSON_ORGANIZATION(#79,#34,#28);
#26=APPROVAL_ROLE('approver');
#27=APPROVAL_ROLE('approver');
#28=APPROVAL_ROLE('approver');
#29=APPROVAL_DATE_TIME(#47,#32);
#30=APPROVAL_DATE_TIME(#48,#33);
#31=APPROVAL_DATE_TIME(#49,#34);
#32=APPROVAL(#35,' ');
#33=APPROVAL(#36,' ');
#34=APPROVAL(#37,' ');
#35=APPROVAL_STATUS('not_yet_approved');
#36=APPROVAL_STATUS('not_yet_approved');
#37=APPROVAL_STATUS('not_yet_approved');
#38=CC_DESIGN_SECURITY_CLASSIFICATION(#39,(#92));
#39=SECURITY_CLASSIFICATION(' ',' ',#40);
#40=SECURITY_CLASSIFICATION_LEVEL('confidential');
#41=CC_DESIGN_DATE_AND_TIME_ASSIGNMENT(#45,#43,(#90));
#42=CC_DESIGN_DATE_AND_TIME_ASSIGNMENT(#46,#44,(#39));
#43=DATE_TIME_ROLE('creation_date');
#44=DATE_TIME_ROLE('classification_date');
#45=DATE_AND_TIME(#60,#50);
#46=DATE_AND_TIME(#61,#51);
#47=DATE_AND_TIME(#62,#52);
#48=DATE_AND_TIME(#63,#53);
#49=DATE_AND_TIME(#64,#54);
#50=LOCAL_TIME(0,0,0.,#55);
#51=LOCAL_TIME(0,0,0.,#56);
#52=LOCAL_TIME(0,0,0.,#57);
#53=LOCAL_TIME(0,0,0.,#58);
#54=LOCAL_TIME(0,0,0.,#59);
#55=COORDINATED_UNIVERSAL_TIME_OFFSET(0,0,.BEHIND.);
#56=COORDINATED_UNIVERSAL_TIME_OFFSET(0,0,.BEHIND.);
#57=COORDINATED_UNIVERSAL_TIME_OFFSET(0,0,.BEHIND.);
#58=COORDINATED_UNIVERSAL_TIME_OFFSET(0,0,.BEHIND.);
#59=COORDINATED_UNIVERSAL_TIME_OFFSET(0,0,.BEHIND.);
#60=CALENDAR_DATE(0,1,1);
#61=CALENDAR_DATE(0,1,1);
#62=CALENDAR_DATE(0,1,1);
#63=CALENDAR_DATE(0,1,1);
#64=CALENDAR_DATE(0,1,1);
#65=CC_DESIGN_PERSON_AND_ORGANIZATION_ASSIGNMENT(#73,#69,(#90,#92));
#66=CC_DESIGN_PERSON_AND_ORGANIZATION_ASSIGNMENT(#74,#70,(#94));
#67=CC_DESIGN_PERSON_AND_ORGANIZATION_ASSIGNMENT(#75,#71,(#92));
#68=CC_DESIGN_PERSON_AND_ORGANIZATION_ASSIGNMENT(#76,#72,(#39));
#69=PERSON_AND_ORGANIZATION_ROLE('creator');
#70=PERSON_AND_ORGANIZATION_ROLE('design_owner');
#71=PERSON_AND_ORGANIZATION_ROLE('design_supplier');
#72=PERSON_AND_ORGANIZATION_ROLE('classification_officer');
#73=PERSON_AND_ORGANIZATION(#87,#80);
#74=PERSON_AND_ORGANIZATION(#87,#81);
#75=PERSON_AND_ORGANIZATION(#87,#82);
#76=PERSON_AND_ORGANIZATION(#87,#83);
#77=PERSON_AND_ORGANIZATION(#87,#84);
#78=PERSON_AND_ORGANIZATION(#87,#85);
#79=PERSON_AND_ORGANIZATION(#87,#86);
#80=ORGANIZATION(' ',' ',' ');
#81=ORGANIZATION(' ',' ',' ');
#82=ORGANIZATION(' ',' ',' ');
#83=ORGANIZATION(' ',' ',' ');
#84=ORGANIZATION(' ',' ',' ');
#85=ORGANIZATION(' ',' ',' ');
#86=ORGANIZATION(' ',' ',' ');
#87=PERSON(' ',' ',' ',(' '),$,$);
#88=SHAPE_DEFINITION_REPRESENTATION(#89,#100);
#89=PRODUCT_DEFINITION_SHAPE('','',#90);
#90=PRODUCT_DEFINITION(' ','',#92,#91);
#91=DESIGN_CONTEXT('',#99,'design');
#92=PRODUCT_DEFINITION_FORMATION_WITH_SPECIFIED_SOURCE(' ',' ',#94,
 .NOT_KNOWN.);
#93=PRODUCT_RELATED_PRODUCT_CATEGORY('detail','',(#94));
#94=PRODUCT('turc4BE46F0Flnwl','turc4BE46F0Flnwl',' ',(#97));
#95=PRODUCT_CATEGORY('part',' ');
#96=PRODUCT_CATEGORY(' ','');
#97=MECHANICAL_CONTEXT(' ',#99,'mechanical');
#98=APPLICATION_PROTOCOL_DEFINITION('international standard',
'config_control_design',2010,#99);
#99=APPLICATION_CONTEXT(
'configuration controlled 3D designs of mechanical parts and assemblie
s');
#100=SHAPE_REPRESENTATION('turc4BE46F0Flnwl-None',(#409),#657);
#101=PRESENTATION_LAYER_ASSIGNMENT('1','Layer 1',(#110));
#102=STYLED_ITEM('',(#103),#110);
#103=PRESENTATION_STYLE_ASSIGNMENT((#104));
#104=SURFACE_STYLE_USAGE(.BOTH.,#105);
#105=SURFACE_SIDE_STYLE('',(#106));
#106=SURFACE_STYLE_FILL_AREA(#107);
#107=FILL_AREA_STYLE('',(#108));
#108=FILL_AREA_STYLE_COLOUR('',#109);
#109=COLOUR_RGB('Medium Steel',0.596063172350652,0.666666666666667,0.686259250782025);
#110=MANIFOLD_SOLID_BREP('',#111);
#111=CLOSED_SHELL('',(#128,#129,#130,#131,#132,#133,#134,#135,#136,#137,
#138,#139,#140,#141,#142,#143,#144,#145,#146,#147,#148,#149,#150,#151,#152,
#153,#154));
#112=CONICAL_SURFACE('',#444,4.05,45.);
#113=CONICAL_SURFACE('',#445,6.5,44.9999999999998);
#114=CONICAL_SURFACE('',#446,5.3,44.9999999999998);
#115=CONICAL_SURFACE('',#462,8.,45.);
#116=CONICAL_SURFACE('',#463,8.,45.);
#117=PLANE('',#426);
#118=PLANE('',#429);
#119=PLANE('',#434);
#120=PLANE('',#438);
#121=PLANE('',#443);
#122=PLANE('',#450);
#123=PLANE('',#451);
#124=PLANE('',#455);
#125=PLANE('',#456);
#126=PLANE('',#460);
#127=PLANE('',#461);
#128=ADVANCED_FACE('',(#166,#167),#155,.T.);
#129=ADVANCED_FACE('',(#168,#169),#156,.T.);
#130=ADVANCED_FACE('',(#170,#171),#157,.T.);
#131=ADVANCED_FACE('',(#172,#173),#158,.T.);
#132=ADVANCED_FACE('',(#174,#175),#159,.F.);
#133=ADVANCED_FACE('',(#176,#177),#117,.T.);
#134=ADVANCED_FACE('',(#178,#179),#118,.T.);
#135=ADVANCED_FACE('',(#180,#181),#160,.T.);
#136=ADVANCED_FACE('',(#182,#183),#119,.F.);
#137=ADVANCED_FACE('',(#184,#185),#161,.F.);
#138=ADVANCED_FACE('',(#186,#187),#120,.F.);
#139=ADVANCED_FACE('',(#188,#189),#162,.F.);
#140=ADVANCED_FACE('',(#190,#191),#121,.T.);
#141=ADVANCED_FACE('',(#192,#193),#112,.F.);
#142=ADVANCED_FACE('',(#194,#195),#113,.T.);
#143=ADVANCED_FACE('',(#196,#197),#114,.F.);
#144=ADVANCED_FACE('',(#198,#199),#163,.T.);
#145=ADVANCED_FACE('',(#200,#201),#122,.T.);
#146=ADVANCED_FACE('',(#202,#203),#123,.F.);
#147=ADVANCED_FACE('',(#204,#205),#164,.T.);
#148=ADVANCED_FACE('',(#206,#207),#124,.T.);
#149=ADVANCED_FACE('',(#208,#209),#125,.F.);
#150=ADVANCED_FACE('',(#210,#211),#165,.T.);
#151=ADVANCED_FACE('',(#212,#213),#126,.T.);
#152=ADVANCED_FACE('',(#214,#215),#127,.F.);
#153=ADVANCED_FACE('',(#216,#217),#115,.T.);
#154=ADVANCED_FACE('',(#218,#219),#116,.T.);
#155=CYLINDRICAL_SURFACE('',#412,8.);
#156=CYLINDRICAL_SURFACE('',#415,8.);
#157=CYLINDRICAL_SURFACE('',#418,8.);
#158=CYLINDRICAL_SURFACE('',#421,6.5);
#159=CYLINDRICAL_SURFACE('',#424,5.);
#160=CYLINDRICAL_SURFACE('',#432,8.);
#161=CYLINDRICAL_SURFACE('',#436,2.25);
#162=CYLINDRICAL_SURFACE('',#440,3.75);
#163=CYLINDRICAL_SURFACE('',#449,7.65);
#164=CYLINDRICAL_SURFACE('',#454,7.65);
#165=CYLINDRICAL_SURFACE('',#459,7.65);
#166=FACE_BOUND('',#220,.T.);
#167=FACE_BOUND('',#221,.T.);
#168=FACE_BOUND('',#222,.T.);
#169=FACE_BOUND('',#223,.T.);
#170=FACE_BOUND('',#224,.T.);
#171=FACE_BOUND('',#225,.T.);
#172=FACE_BOUND('',#226,.T.);
#173=FACE_BOUND('',#227,.T.);
#174=FACE_BOUND('',#228,.T.);
#175=FACE_BOUND('',#229,.T.);
#176=FACE_BOUND('',#230,.T.);
#177=FACE_BOUND('',#231,.T.);
#178=FACE_BOUND('',#232,.T.);
#179=FACE_BOUND('',#233,.T.);
#180=FACE_BOUND('',#234,.T.);
#181=FACE_BOUND('',#235,.T.);
#182=FACE_BOUND('',#236,.T.);
#183=FACE_BOUND('',#237,.T.);
#184=FACE_BOUND('',#238,.T.);
#185=FACE_BOUND('',#239,.T.);
#186=FACE_BOUND('',#240,.T.);
#187=FACE_BOUND('',#241,.T.);
#188=FACE_BOUND('',#242,.T.);
#189=FACE_BOUND('',#243,.T.);
#190=FACE_BOUND('',#244,.T.);
#191=FACE_BOUND('',#245,.T.);
#192=FACE_BOUND('',#246,.T.);
#193=FACE_BOUND('',#247,.T.);
#194=FACE_BOUND('',#248,.T.);
#195=FACE_BOUND('',#249,.T.);
#196=FACE_BOUND('',#250,.T.);
#197=FACE_BOUND('',#251,.T.);
#198=FACE_BOUND('',#252,.T.);
#199=FACE_BOUND('',#253,.T.);
#200=FACE_BOUND('',#254,.T.);
#201=FACE_BOUND('',#255,.T.);
#202=FACE_BOUND('',#256,.T.);
#203=FACE_BOUND('',#257,.T.);
#204=FACE_BOUND('',#258,.T.);
#205=FACE_BOUND('',#259,.T.);
#206=FACE_BOUND('',#260,.T.);
#207=FACE_BOUND('',#261,.T.);
#208=FACE_BOUND('',#262,.T.);
#209=FACE_BOUND('',#263,.T.);
#210=FACE_BOUND('',#264,.T.);
#211=FACE_BOUND('',#265,.T.);
#212=FACE_BOUND('',#266,.T.);
#213=FACE_BOUND('',#267,.T.);
#214=FACE_BOUND('',#268,.T.);
#215=FACE_BOUND('',#269,.T.);
#216=FACE_BOUND('',#270,.T.);
#217=FACE_BOUND('',#271,.T.);
#218=FACE_BOUND('',#272,.T.);
#219=FACE_BOUND('',#273,.T.);
#220=EDGE_LOOP('',(#274));
#221=EDGE_LOOP('',(#275));
#222=EDGE_LOOP('',(#276));
#223=EDGE_LOOP('',(#277));
#224=EDGE_LOOP('',(#278));
#225=EDGE_LOOP('',(#279));
#226=EDGE_LOOP('',(#280));
#227=EDGE_LOOP('',(#281));
#228=EDGE_LOOP('',(#282));
#229=EDGE_LOOP('',(#283));
#230=EDGE_LOOP('',(#284));
#231=EDGE_LOOP('',(#285));
#232=EDGE_LOOP('',(#286));
#233=EDGE_LOOP('',(#287));
#234=EDGE_LOOP('',(#288));
#235=EDGE_LOOP('',(#289));
#236=EDGE_LOOP('',(#290));
#237=EDGE_LOOP('',(#291));
#238=EDGE_LOOP('',(#292));
#239=EDGE_LOOP('',(#293));
#240=EDGE_LOOP('',(#294));
#241=EDGE_LOOP('',(#295));
#242=EDGE_LOOP('',(#296));
#243=EDGE_LOOP('',(#297));
#244=EDGE_LOOP('',(#298));
#245=EDGE_LOOP('',(#299));
#246=EDGE_LOOP('',(#300));
#247=EDGE_LOOP('',(#301));
#248=EDGE_LOOP('',(#302));
#249=EDGE_LOOP('',(#303));
#250=EDGE_LOOP('',(#304));
#251=EDGE_LOOP('',(#305));
#252=EDGE_LOOP('',(#306));
#253=EDGE_LOOP('',(#307));
#254=EDGE_LOOP('',(#308));
#255=EDGE_LOOP('',(#309));
#256=EDGE_LOOP('',(#310));
#257=EDGE_LOOP('',(#311));
#258=EDGE_LOOP('',(#312));
#259=EDGE_LOOP('',(#313));
#260=EDGE_LOOP('',(#314));
#261=EDGE_LOOP('',(#315));
#262=EDGE_LOOP('',(#316));
#263=EDGE_LOOP('',(#317));
#264=EDGE_LOOP('',(#318));
#265=EDGE_LOOP('',(#319));
#266=EDGE_LOOP('',(#320));
#267=EDGE_LOOP('',(#321));
#268=EDGE_LOOP('',(#322));
#269=EDGE_LOOP('',(#323));
#270=EDGE_LOOP('',(#324));
#271=EDGE_LOOP('',(#325));
#272=EDGE_LOOP('',(#326));
#273=EDGE_LOOP('',(#327));
#274=ORIENTED_EDGE('',*,*,#355,.T.);
#275=ORIENTED_EDGE('',*,*,#356,.T.);
#276=ORIENTED_EDGE('',*,*,#357,.F.);
#277=ORIENTED_EDGE('',*,*,#358,.T.);
#278=ORIENTED_EDGE('',*,*,#359,.F.);
#279=ORIENTED_EDGE('',*,*,#360,.T.);
#280=ORIENTED_EDGE('',*,*,#361,.T.);
#281=ORIENTED_EDGE('',*,*,#362,.T.);
#282=ORIENTED_EDGE('',*,*,#363,.T.);
#283=ORIENTED_EDGE('',*,*,#364,.F.);
#284=ORIENTED_EDGE('',*,*,#365,.T.);
#285=ORIENTED_EDGE('',*,*,#362,.F.);
#286=ORIENTED_EDGE('',*,*,#366,.T.);
#287=ORIENTED_EDGE('',*,*,#367,.T.);
#288=ORIENTED_EDGE('',*,*,#368,.T.);
#289=ORIENTED_EDGE('',*,*,#369,.F.);
#290=ORIENTED_EDGE('',*,*,#370,.T.);
#291=ORIENTED_EDGE('',*,*,#364,.T.);
#292=ORIENTED_EDGE('',*,*,#371,.T.);
#293=ORIENTED_EDGE('',*,*,#370,.F.);
#294=ORIENTED_EDGE('',*,*,#372,.T.);
#295=ORIENTED_EDGE('',*,*,#371,.F.);
#296=ORIENTED_EDGE('',*,*,#373,.T.);
#297=ORIENTED_EDGE('',*,*,#372,.F.);
#298=ORIENTED_EDGE('',*,*,#374,.T.);
#299=ORIENTED_EDGE('',*,*,#375,.T.);
#300=ORIENTED_EDGE('',*,*,#373,.F.);
#301=ORIENTED_EDGE('',*,*,#367,.F.);
#302=ORIENTED_EDGE('',*,*,#375,.F.);
#303=ORIENTED_EDGE('',*,*,#361,.F.);
#304=ORIENTED_EDGE('',*,*,#363,.F.);
#305=ORIENTED_EDGE('',*,*,#374,.F.);
#306=ORIENTED_EDGE('',*,*,#376,.T.);
#307=ORIENTED_EDGE('',*,*,#377,.F.);
#308=ORIENTED_EDGE('',*,*,#360,.F.);
#309=ORIENTED_EDGE('',*,*,#377,.T.);
#310=ORIENTED_EDGE('',*,*,#369,.T.);
#311=ORIENTED_EDGE('',*,*,#376,.F.);
#312=ORIENTED_EDGE('',*,*,#378,.T.);
#313=ORIENTED_EDGE('',*,*,#379,.F.);
#314=ORIENTED_EDGE('',*,*,#358,.F.);
#315=ORIENTED_EDGE('',*,*,#379,.T.);
#316=ORIENTED_EDGE('',*,*,#359,.T.);
#317=ORIENTED_EDGE('',*,*,#378,.F.);
#318=ORIENTED_EDGE('',*,*,#380,.T.);
#319=ORIENTED_EDGE('',*,*,#381,.F.);
#320=ORIENTED_EDGE('',*,*,#356,.F.);
#321=ORIENTED_EDGE('',*,*,#381,.T.);
#322=ORIENTED_EDGE('',*,*,#357,.T.);
#323=ORIENTED_EDGE('',*,*,#380,.F.);
#324=ORIENTED_EDGE('',*,*,#365,.F.);
#325=ORIENTED_EDGE('',*,*,#368,.F.);
#326=ORIENTED_EDGE('',*,*,#366,.F.);
#327=ORIENTED_EDGE('',*,*,#355,.F.);
#328=VERTEX_POINT('',#576);
#329=VERTEX_POINT('',#578);
#330=VERTEX_POINT('',#581);
#331=VERTEX_POINT('',#583);
#332=VERTEX_POINT('',#586);
#333=VERTEX_POINT('',#588);
#334=VERTEX_POINT('',#591);
#335=VERTEX_POINT('',#593);
#336=VERTEX_POINT('',#596);
#337=VERTEX_POINT('',#598);
#338=VERTEX_POINT('',#601);
#339=VERTEX_POINT('',#604);
#340=VERTEX_POINT('',#606);
#341=VERTEX_POINT('',#609);
#342=VERTEX_POINT('',#611);
#343=VERTEX_POINT('',#614);
#344=VERTEX_POINT('',#617);
#345=VERTEX_POINT('',#620);
#346=VERTEX_POINT('',#623);
#347=VERTEX_POINT('',#626);
#348=VERTEX_POINT('',#628);
#349=VERTEX_POINT('',#634);
#350=VERTEX_POINT('',#636);
#351=VERTEX_POINT('',#641);
#352=VERTEX_POINT('',#643);
#353=VERTEX_POINT('',#648);
#354=VERTEX_POINT('',#650);
#355=EDGE_CURVE('',#328,#328,#382,.T.);
#356=EDGE_CURVE('',#329,#329,#383,.T.);
#357=EDGE_CURVE('',#330,#330,#384,.T.);
#358=EDGE_CURVE('',#331,#331,#385,.T.);
#359=EDGE_CURVE('',#332,#332,#386,.T.);
#360=EDGE_CURVE('',#333,#333,#387,.T.);
#361=EDGE_CURVE('',#334,#334,#388,.T.);
#362=EDGE_CURVE('',#335,#335,#389,.T.);
#363=EDGE_CURVE('',#336,#336,#390,.T.);
#364=EDGE_CURVE('',#337,#337,#391,.T.);
#365=EDGE_CURVE('',#338,#338,#392,.T.);
#366=EDGE_CURVE('',#339,#339,#393,.T.);
#367=EDGE_CURVE('',#340,#340,#394,.T.);
#368=EDGE_CURVE('',#341,#341,#395,.T.);
#369=EDGE_CURVE('',#342,#342,#396,.T.);
#370=EDGE_CURVE('',#343,#343,#397,.T.);
#371=EDGE_CURVE('',#344,#344,#398,.T.);
#372=EDGE_CURVE('',#345,#345,#399,.T.);
#373=EDGE_CURVE('',#346,#346,#400,.T.);
#374=EDGE_CURVE('',#347,#347,#401,.T.);
#375=EDGE_CURVE('',#348,#348,#402,.T.);
#376=EDGE_CURVE('',#349,#349,#403,.T.);
#377=EDGE_CURVE('',#350,#350,#404,.T.);
#378=EDGE_CURVE('',#351,#351,#405,.T.);
#379=EDGE_CURVE('',#352,#352,#406,.T.);
#380=EDGE_CURVE('',#353,#353,#407,.T.);
#381=EDGE_CURVE('',#354,#354,#408,.T.);
#382=CIRCLE('',#410,8.);
#383=CIRCLE('',#411,8.);
#384=CIRCLE('',#413,8.);
#385=CIRCLE('',#414,8.);
#386=CIRCLE('',#416,8.);
#387=CIRCLE('',#417,8.);
#388=CIRCLE('',#419,6.5);
#389=CIRCLE('',#420,6.5);
#390=CIRCLE('',#422,5.);
#391=CIRCLE('',#423,5.);
#392=CIRCLE('',#425,7.5);
#393=CIRCLE('',#427,7.5);
#394=CIRCLE('',#428,4.05);
#395=CIRCLE('',#430,8.);
#396=CIRCLE('',#431,8.);
#397=CIRCLE('',#433,2.25);
#398=CIRCLE('',#435,2.25);
#399=CIRCLE('',#437,3.75);
#400=CIRCLE('',#439,3.75);
#401=CIRCLE('',#441,5.3);
#402=CIRCLE('',#442,6.2);
#403=CIRCLE('',#447,7.65);
#404=CIRCLE('',#448,7.65);
#405=CIRCLE('',#452,7.65);
#406=CIRCLE('',#453,7.65);
#407=CIRCLE('',#457,7.65);
#408=CIRCLE('',#458,7.65);
#409=AXIS2_PLACEMENT_3D('',#574,#464,#465);
#410=AXIS2_PLACEMENT_3D('',#575,#466,#467);
#411=AXIS2_PLACEMENT_3D('',#577,#468,#469);
#412=AXIS2_PLACEMENT_3D('',#579,#470,#471);
#413=AXIS2_PLACEMENT_3D('',#580,#472,#473);
#414=AXIS2_PLACEMENT_3D('',#582,#474,#475);
#415=AXIS2_PLACEMENT_3D('',#584,#476,#477);
#416=AXIS2_PLACEMENT_3D('',#585,#478,#479);
#417=AXIS2_PLACEMENT_3D('',#587,#480,#481);
#418=AXIS2_PLACEMENT_3D('',#589,#482,#483);
#419=AXIS2_PLACEMENT_3D('',#590,#484,#485);
#420=AXIS2_PLACEMENT_3D('',#592,#486,#487);
#421=AXIS2_PLACEMENT_3D('',#594,#488,#489);
#422=AXIS2_PLACEMENT_3D('',#595,#490,#491);
#423=AXIS2_PLACEMENT_3D('',#597,#492,#493);
#424=AXIS2_PLACEMENT_3D('',#599,#494,#495);
#425=AXIS2_PLACEMENT_3D('',#600,#496,#497);
#426=AXIS2_PLACEMENT_3D('',#602,#498,#499);
#427=AXIS2_PLACEMENT_3D('',#603,#500,#501);
#428=AXIS2_PLACEMENT_3D('',#605,#502,#503);
#429=AXIS2_PLACEMENT_3D('',#607,#504,#505);
#430=AXIS2_PLACEMENT_3D('',#608,#506,#507);
#431=AXIS2_PLACEMENT_3D('',#610,#508,#509);
#432=AXIS2_PLACEMENT_3D('',#612,#510,#511);
#433=AXIS2_PLACEMENT_3D('',#613,#512,#513);
#434=AXIS2_PLACEMENT_3D('',#615,#514,#515);
#435=AXIS2_PLACEMENT_3D('',#616,#516,#517);
#436=AXIS2_PLACEMENT_3D('',#618,#518,#519);
#437=AXIS2_PLACEMENT_3D('',#619,#520,#521);
#438=AXIS2_PLACEMENT_3D('',#621,#522,#523);
#439=AXIS2_PLACEMENT_3D('',#622,#524,#525);
#440=AXIS2_PLACEMENT_3D('',#624,#526,#527);
#441=AXIS2_PLACEMENT_3D('',#625,#528,#529);
#442=AXIS2_PLACEMENT_3D('',#627,#530,#531);
#443=AXIS2_PLACEMENT_3D('',#629,#532,#533);
#444=AXIS2_PLACEMENT_3D('',#630,#534,#535);
#445=AXIS2_PLACEMENT_3D('',#631,#536,#537);
#446=AXIS2_PLACEMENT_3D('',#632,#538,#539);
#447=AXIS2_PLACEMENT_3D('',#633,#540,#541);
#448=AXIS2_PLACEMENT_3D('',#635,#542,#543);
#449=AXIS2_PLACEMENT_3D('',#637,#544,#545);
#450=AXIS2_PLACEMENT_3D('',#638,#546,#547);
#451=AXIS2_PLACEMENT_3D('',#639,#548,#549);
#452=AXIS2_PLACEMENT_3D('',#640,#550,#551);
#453=AXIS2_PLACEMENT_3D('',#642,#552,#553);
#454=AXIS2_PLACEMENT_3D('',#644,#554,#555);
#455=AXIS2_PLACEMENT_3D('',#645,#556,#557);
#456=AXIS2_PLACEMENT_3D('',#646,#558,#559);
#457=AXIS2_PLACEMENT_3D('',#647,#560,#561);
#458=AXIS2_PLACEMENT_3D('',#649,#562,#563);
#459=AXIS2_PLACEMENT_3D('',#651,#564,#565);
#460=AXIS2_PLACEMENT_3D('',#652,#566,#567);
#461=AXIS2_PLACEMENT_3D('',#653,#568,#569);
#462=AXIS2_PLACEMENT_3D('',#654,#570,#571);
#463=AXIS2_PLACEMENT_3D('',#655,#572,#573);
#464=DIRECTION('',(0.,0.,1.));
#465=DIRECTION('',(1.,0.,0.));
#466=DIRECTION('',(0.,0.,1.));
#467=DIRECTION('',(-1.,0.,0.));
#468=DIRECTION('',(0.,0.,-1.));
#469=DIRECTION('',(1.,0.,0.));
#470=DIRECTION('',(0.,0.,1.));
#471=DIRECTION('',(1.,0.,0.));
#472=DIRECTION('',(0.,0.,-1.));
#473=DIRECTION('',(1.,0.,0.));
#474=DIRECTION('',(0.,0.,-1.));
#475=DIRECTION('',(1.,0.,0.));
#476=DIRECTION('',(0.,0.,1.));
#477=DIRECTION('',(1.,0.,0.));
#478=DIRECTION('',(0.,0.,-1.));
#479=DIRECTION('',(1.,0.,0.));
#480=DIRECTION('',(0.,0.,-1.));
#481=DIRECTION('',(1.,0.,0.));
#482=DIRECTION('',(0.,0.,1.));
#483=DIRECTION('',(1.,0.,0.));
#484=DIRECTION('',(0.,0.,-1.));
#485=DIRECTION('',(1.,0.,0.));
#486=DIRECTION('',(0.,0.,1.));
#487=DIRECTION('',(1.,0.,0.));
#488=DIRECTION('',(0.,0.,1.));
#489=DIRECTION('',(1.,0.,0.));
#490=DIRECTION('',(0.,0.,1.));
#491=DIRECTION('',(1.,0.,0.));
#492=DIRECTION('',(0.,0.,1.));
#493=DIRECTION('',(-1.,0.,0.));
#494=DIRECTION('',(0.,0.,-1.));
#495=DIRECTION('',(-1.,0.,0.));
#496=DIRECTION('',(0.,0.,1.));
#497=DIRECTION('',(1.,0.,0.));
#498=DIRECTION('',(0.,0.,1.));
#499=DIRECTION('',(1.,0.,0.));
#500=DIRECTION('',(0.,0.,-1.));
#501=DIRECTION('',(-1.,0.,0.));
#502=DIRECTION('',(0.,0.,1.));
#503=DIRECTION('',(-1.,0.,0.));
#504=DIRECTION('',(0.,0.,-1.));
#505=DIRECTION('',(-1.,0.,0.));
#506=DIRECTION('',(0.,0.,-1.));
#507=DIRECTION('',(1.,0.,0.));
#508=DIRECTION('',(0.,0.,-1.));
#509=DIRECTION('',(1.,0.,0.));
#510=DIRECTION('',(0.,0.,1.));
#511=DIRECTION('',(1.,0.,0.));
#512=DIRECTION('',(0.,0.,-1.));
#513=DIRECTION('',(-1.,0.,0.));
#514=DIRECTION('',(0.,0.,-1.));
#515=DIRECTION('',(-1.,0.,0.));
#516=DIRECTION('',(0.,0.,-1.));
#517=DIRECTION('',(1.,0.,0.));
#518=DIRECTION('',(0.,0.,1.));
#519=DIRECTION('',(1.,0.,0.));
#520=DIRECTION('',(0.,0.,-1.));
#521=DIRECTION('',(1.,0.,0.));
#522=DIRECTION('',(0.,0.,1.));
#523=DIRECTION('',(1.,0.,0.));
#524=DIRECTION('',(0.,0.,-1.));
#525=DIRECTION('',(-1.,0.,0.));
#526=DIRECTION('',(0.,0.,1.));
#527=DIRECTION('',(1.,0.,0.));
#528=DIRECTION('',(0.,0.,-1.));
#529=DIRECTION('',(1.,0.,0.));
#530=DIRECTION('',(0.,0.,1.));
#531=DIRECTION('',(1.,0.,0.));
#532=DIRECTION('',(0.,0.,1.));
#533=DIRECTION('',(1.,0.,0.));
#534=DIRECTION('',(0.,0.,-1.));
#535=DIRECTION('',(-1.,0.,0.));
#536=DIRECTION('',(0.,0.,-1.));
#537=DIRECTION('',(-1.,0.,-5.17056177638396E-17));
#538=DIRECTION('',(0.,0.,1.));
#539=DIRECTION('',(1.,0.,-8.62788956518859E-17));
#540=DIRECTION('',(0.,0.,-1.));
#541=DIRECTION('',(1.,0.,0.));
#542=DIRECTION('',(0.,0.,-1.));
#543=DIRECTION('',(1.,0.,0.));
#544=DIRECTION('',(0.,0.,1.));
#545=DIRECTION('',(1.,0.,0.));
#546=DIRECTION('',(0.,0.,1.));
#547=DIRECTION('',(1.,0.,0.));
#548=DIRECTION('',(0.,0.,1.));
#549=DIRECTION('',(1.,0.,0.));
#550=DIRECTION('',(0.,0.,-1.));
#551=DIRECTION('',(1.,0.,0.));
#552=DIRECTION('',(0.,0.,-1.));
#553=DIRECTION('',(1.,0.,0.));
#554=DIRECTION('',(0.,0.,1.));
#555=DIRECTION('',(1.,0.,0.));
#556=DIRECTION('',(0.,0.,1.));
#557=DIRECTION('',(1.,0.,0.));
#558=DIRECTION('',(0.,0.,1.));
#559=DIRECTION('',(1.,0.,0.));
#560=DIRECTION('',(0.,0.,-1.));
#561=DIRECTION('',(1.,0.,0.));
#562=DIRECTION('',(0.,0.,-1.));
#563=DIRECTION('',(1.,0.,0.));
#564=DIRECTION('',(0.,0.,1.));
#565=DIRECTION('',(1.,0.,0.));
#566=DIRECTION('',(0.,0.,1.));
#567=DIRECTION('',(1.,0.,0.));
#568=DIRECTION('',(0.,0.,1.));
#569=DIRECTION('',(1.,0.,0.));
#570=DIRECTION('',(0.,0.,-1.));
#571=DIRECTION('',(-1.,0.,-4.13029399042097E-17));
#572=DIRECTION('',(0.,0.,1.));
#573=DIRECTION('',(1.,0.,-5.46403475816107E-17));
#574=CARTESIAN_POINT('',(0.,0.,0.));
#575=CARTESIAN_POINT('',(0.,0.,0.5));
#576=CARTESIAN_POINT('',(-8.,0.,0.5));
#577=CARTESIAN_POINT('',(0.,0.,1.75));
#578=CARTESIAN_POINT('',(8.,0.,1.75));
#579=CARTESIAN_POINT('',(0.,0.,0.));
#580=CARTESIAN_POINT('',(0.,0.,4.25));
#581=CARTESIAN_POINT('',(8.,0.,4.25));
#582=CARTESIAN_POINT('',(0.,0.,6.25));
#583=CARTESIAN_POINT('',(8.,0.,6.25));
#584=CARTESIAN_POINT('',(0.,0.,0.));
#585=CARTESIAN_POINT('',(0.,0.,8.75));
#586=CARTESIAN_POINT('',(8.,0.,8.75));
#587=CARTESIAN_POINT('',(0.,0.,10.75));
#588=CARTESIAN_POINT('',(8.,0.,10.75));
#589=CARTESIAN_POINT('',(0.,0.,0.));
#590=CARTESIAN_POINT('',(0.,0.,26.7));
#591=CARTESIAN_POINT('',(6.5,0.,26.7));
#592=CARTESIAN_POINT('',(0.,0.,15.));
#593=CARTESIAN_POINT('',(6.5,0.,15.));
#594=CARTESIAN_POINT('',(0.,0.,15.));
#595=CARTESIAN_POINT('',(0.,0.,26.7));
#596=CARTESIAN_POINT('',(5.,0.,26.7));
#597=CARTESIAN_POINT('',(0.,0.,22.));
#598=CARTESIAN_POINT('',(-5.,0.,22.));
#599=CARTESIAN_POINT('',(0.,0.,32.));
#600=CARTESIAN_POINT('',(0.,0.,15.));
#601=CARTESIAN_POINT('',(7.5,0.,15.));
#602=CARTESIAN_POINT('',(0.,0.,15.));
#603=CARTESIAN_POINT('',(0.,0.,0.));
#604=CARTESIAN_POINT('',(-7.5,0.,0.));
#605=CARTESIAN_POINT('',(0.,0.,0.));
#606=CARTESIAN_POINT('',(-4.05,0.,0.));
#607=CARTESIAN_POINT('',(0.,0.,0.));
#608=CARTESIAN_POINT('',(0.,0.,14.5));
#609=CARTESIAN_POINT('',(8.,0.,14.5));
#610=CARTESIAN_POINT('',(0.,0.,13.25));
#611=CARTESIAN_POINT('',(8.,0.,13.25));
#612=CARTESIAN_POINT('',(0.,0.,0.));
#613=CARTESIAN_POINT('',(0.,0.,22.));
#614=CARTESIAN_POINT('',(-2.25,0.,22.));
#615=CARTESIAN_POINT('',(0.,0.,22.));
#616=CARTESIAN_POINT('',(0.,0.,10.));
#617=CARTESIAN_POINT('',(2.25,0.,10.));
#618=CARTESIAN_POINT('',(0.,0.,0.));
#619=CARTESIAN_POINT('',(0.,0.,10.));
#620=CARTESIAN_POINT('',(3.75,0.,10.));
#621=CARTESIAN_POINT('',(0.,0.,10.));
#622=CARTESIAN_POINT('',(0.,0.,0.3));
#623=CARTESIAN_POINT('',(-3.75,0.,0.3));
#624=CARTESIAN_POINT('',(0.,0.,0.));
#625=CARTESIAN_POINT('',(0.,0.,27.));
#626=CARTESIAN_POINT('',(5.3,0.,27.));
#627=CARTESIAN_POINT('',(0.,0.,27.));
#628=CARTESIAN_POINT('',(6.2,0.,27.));
#629=CARTESIAN_POINT('',(0.,0.,27.));
#630=CARTESIAN_POINT('',(0.,0.,0.));
#631=CARTESIAN_POINT('',(0.,0.,26.7));
#632=CARTESIAN_POINT('',(0.,0.,27.));
#633=CARTESIAN_POINT('',(0.,0.,13.25));
#634=CARTESIAN_POINT('',(7.65,0.,13.25));
#635=CARTESIAN_POINT('',(0.,0.,10.75));
#636=CARTESIAN_POINT('',(7.65,0.,10.75));
#637=CARTESIAN_POINT('',(0.,0.,12.));
#638=CARTESIAN_POINT('',(0.,0.,10.75));
#639=CARTESIAN_POINT('',(0.,0.,13.25));
#640=CARTESIAN_POINT('',(0.,0.,8.75));
#641=CARTESIAN_POINT('',(7.65,0.,8.75));
#642=CARTESIAN_POINT('',(0.,0.,6.25));
#643=CARTESIAN_POINT('',(7.65,0.,6.25));
#644=CARTESIAN_POINT('',(0.,0.,7.5));
#645=CARTESIAN_POINT('',(0.,0.,6.25));
#646=CARTESIAN_POINT('',(0.,0.,8.75));
#647=CARTESIAN_POINT('',(0.,0.,4.25));
#648=CARTESIAN_POINT('',(7.65,0.,4.25));
#649=CARTESIAN_POINT('',(0.,0.,1.75));
#650=CARTESIAN_POINT('',(7.65,0.,1.75));
#651=CARTESIAN_POINT('',(0.,0.,3.));
#652=CARTESIAN_POINT('',(0.,0.,1.75));
#653=CARTESIAN_POINT('',(0.,0.,4.25));
#654=CARTESIAN_POINT('',(0.,0.,14.5));
#655=CARTESIAN_POINT('',(0.,0.,0.5));
#656=MECHANICAL_DESIGN_GEOMETRIC_PRESENTATION_REPRESENTATION('',(#102),
#657);
#657=(
GEOMETRIC_REPRESENTATION_CONTEXT(3)
GLOBAL_UNCERTAINTY_ASSIGNED_CONTEXT((#658))
GLOBAL_UNIT_ASSIGNED_CONTEXT((#664,#660,#659))
REPRESENTATION_CONTEXT('GETOUT_STAVE_111','TOP_LEVEL_ASSEMBLY_PART')
);
#658=UNCERTAINTY_MEASURE_WITH_UNIT(LENGTH_MEASURE(2.E-5),#664,
'DISTANCE_ACCURACY_VALUE','Maximum Tolerance applied to model');
#659=(
NAMED_UNIT(*)
SI_UNIT($,.STERADIAN.)
SOLID_ANGLE_UNIT()
);
#660=(
CONVERSION_BASED_UNIT('DEGREE',#662)
NAMED_UNIT(#661)
PLANE_ANGLE_UNIT()
);
#661=DIMENSIONAL_EXPONENTS(0.,0.,0.,0.,0.,0.,0.);
#662=PLANE_ANGLE_MEASURE_WITH_UNIT(PLANE_ANGLE_MEASURE(0.0174532925),#663);
#663=(
NAMED_UNIT(*)
PLANE_ANGLE_UNIT()
SI_UNIT($,.RADIAN.)
);
#664=(
LENGTH_UNIT()
NAMED_UNIT(*)
SI_UNIT(.MILLI.,.METRE.)
);
ENDSEC;
END-ISO-10303-21;
