ISO-10303-21;
HEADER;
/* Generated by software containing ST-Developer
 * from STEP Tools, Inc. (www.steptools.com) 
 */
/* OPTION: using custom schema-name function */

FILE_DESCRIPTION(
/* description */ (''),
/* implementation_level */ '2;1');

FILE_NAME(
/* name */ 'GETOUT_STAVE_112.stp',
/* time_stamp */ '2018-09-20T14:06:31+02:00',
/* author */ (''),
/* organization */ (''),
/* preprocessor_version */ 'ST-DEVELOPER v16.7',
/* originating_system */ 'SIEMENS PLM Software NX 12.0',
/* authorisation */ '');

FILE_SCHEMA (('AUTOMOTIVE_DESIGN { 1 0 10303 214 3 1 1 1 }'));
ENDSEC;

DATA;
#10=PROPERTY_DEFINITION_REPRESENTATION(#14,#12);
#11=PROPERTY_DEFINITION_REPRESENTATION(#15,#13);
#12=REPRESENTATION('',(#16),#317);
#13=REPRESENTATION('',(#17),#317);
#14=PROPERTY_DEFINITION('pmi validation property','',#21);
#15=PROPERTY_DEFINITION('pmi validation property','',#21);
#16=VALUE_REPRESENTATION_ITEM('number of annotations',COUNT_MEASURE(0.));
#17=VALUE_REPRESENTATION_ITEM('number of views',COUNT_MEASURE(0.));
#18=SHAPE_REPRESENTATION_RELATIONSHIP('None',
'relationship between bezA730AE56cd1p-None and bezA730AE56cd1p-None',#30,
#19);
#19=ADVANCED_BREP_SHAPE_REPRESENTATION('bezA730AE56cd1p-None',(#40),#317);
#20=SHAPE_DEFINITION_REPRESENTATION(#21,#30);
#21=PRODUCT_DEFINITION_SHAPE('','',#22);
#22=PRODUCT_DEFINITION(' ','',#24,#23);
#23=PRODUCT_DEFINITION_CONTEXT('part definition',#29,'design');
#24=PRODUCT_DEFINITION_FORMATION_WITH_SPECIFIED_SOURCE(' ',' ',#26,
 .NOT_KNOWN.);
#25=PRODUCT_RELATED_PRODUCT_CATEGORY('part','',(#26));
#26=PRODUCT('bezA730AE56cd1p','bezA730AE56cd1p',' ',(#27));
#27=PRODUCT_CONTEXT(' ',#29,'mechanical');
#28=APPLICATION_PROTOCOL_DEFINITION('international standard',
'automotive_design',2010,#29);
#29=APPLICATION_CONTEXT(
'core data for automotive mechanical design processes');
#30=SHAPE_REPRESENTATION('bezA730AE56cd1p-None',(#190),#317);
#31=PRESENTATION_LAYER_ASSIGNMENT('1','Layer 1',(#40));
#32=STYLED_ITEM('',(#33),#40);
#33=PRESENTATION_STYLE_ASSIGNMENT((#34));
#34=SURFACE_STYLE_USAGE(.BOTH.,#35);
#35=SURFACE_SIDE_STYLE('',(#36));
#36=SURFACE_STYLE_FILL_AREA(#37);
#37=FILL_AREA_STYLE('',(#38));
#38=FILL_AREA_STYLE_COLOUR('',#39);
#39=COLOUR_RGB('Medium Steel',0.596063172350652,0.666666666666667,0.686259250782025);
#40=MANIFOLD_SOLID_BREP('',#41);
#41=CLOSED_SHELL('',(#79,#80,#81,#82,#83,#84,#85,#86,#87,#88,#89,#90,#91,
#92));
#42=VERTEX_LOOP('',#162);
#43=CONICAL_SURFACE('',#204,3.5,9.99999999999999);
#44=CONICAL_SURFACE('',#210,2.64734603858307,9.99999999999997);
#45=CONICAL_SURFACE('',#212,1.65,60.);
#46=CONICAL_SURFACE('',#215,2.,45.);
#47=CONICAL_SURFACE('',#216,4.5,45.);
#48=CONICAL_SURFACE('',#217,5.,45.);
#49=CYLINDRICAL_SURFACE('',#195,3.5);
#50=CYLINDRICAL_SURFACE('',#203,5.);
#51=CYLINDRICAL_SURFACE('',#209,3.);
#52=CYLINDRICAL_SURFACE('',#214,1.65);
#53=FACE_BOUND('',#99,.T.);
#54=FACE_BOUND('',#100,.T.);
#55=FACE_BOUND('',#101,.T.);
#56=FACE_BOUND('',#102,.T.);
#57=FACE_BOUND('',#103,.T.);
#58=FACE_BOUND('',#104,.T.);
#59=FACE_BOUND('',#105,.T.);
#60=FACE_BOUND('',#106,.T.);
#61=FACE_BOUND('',#107,.T.);
#62=FACE_BOUND('',#108,.T.);
#63=FACE_BOUND('',#109,.T.);
#64=FACE_BOUND('',#110,.T.);
#65=FACE_BOUND('',#111,.T.);
#66=FACE_BOUND('',#112,.T.);
#67=FACE_BOUND('',#113,.T.);
#68=FACE_BOUND('',#114,.T.);
#69=FACE_BOUND('',#115,.T.);
#70=FACE_BOUND('',#42,.T.);
#71=FACE_BOUND('',#116,.T.);
#72=FACE_BOUND('',#117,.T.);
#73=FACE_BOUND('',#118,.T.);
#74=FACE_BOUND('',#119,.T.);
#75=FACE_BOUND('',#120,.T.);
#76=FACE_BOUND('',#121,.T.);
#77=FACE_BOUND('',#122,.T.);
#78=FACE_BOUND('',#123,.T.);
#79=ADVANCED_FACE('',(#97),#93,.T.);
#80=ADVANCED_FACE('',(#53,#54),#49,.T.);
#81=ADVANCED_FACE('',(#55,#56),#94,.T.);
#82=ADVANCED_FACE('',(#57,#58),#95,.T.);
#83=ADVANCED_FACE('',(#59,#60),#50,.T.);
#84=ADVANCED_FACE('',(#61,#62),#43,.T.);
#85=ADVANCED_FACE('',(#63,#64),#96,.T.);
#86=ADVANCED_FACE('',(#65,#66),#51,.T.);
#87=ADVANCED_FACE('',(#67,#68),#44,.T.);
#88=ADVANCED_FACE('',(#69,#70),#45,.F.);
#89=ADVANCED_FACE('',(#71,#72),#52,.F.);
#90=ADVANCED_FACE('',(#73,#74),#46,.F.);
#91=ADVANCED_FACE('',(#75,#76),#47,.T.);
#92=ADVANCED_FACE('',(#77,#78),#48,.T.);
#93=PLANE('',#192);
#94=PLANE('',#198);
#95=PLANE('',#200);
#96=PLANE('',#207);
#97=FACE_OUTER_BOUND('',#98,.T.);
#98=EDGE_LOOP('',(#124));
#99=EDGE_LOOP('',(#125));
#100=EDGE_LOOP('',(#126));
#101=EDGE_LOOP('',(#127));
#102=EDGE_LOOP('',(#128));
#103=EDGE_LOOP('',(#129));
#104=EDGE_LOOP('',(#130));
#105=EDGE_LOOP('',(#131));
#106=EDGE_LOOP('',(#132));
#107=EDGE_LOOP('',(#133));
#108=EDGE_LOOP('',(#134));
#109=EDGE_LOOP('',(#135));
#110=EDGE_LOOP('',(#136));
#111=EDGE_LOOP('',(#137));
#112=EDGE_LOOP('',(#138));
#113=EDGE_LOOP('',(#139));
#114=EDGE_LOOP('',(#140));
#115=EDGE_LOOP('',(#141));
#116=EDGE_LOOP('',(#142));
#117=EDGE_LOOP('',(#143));
#118=EDGE_LOOP('',(#144));
#119=EDGE_LOOP('',(#145));
#120=EDGE_LOOP('',(#146));
#121=EDGE_LOOP('',(#147));
#122=EDGE_LOOP('',(#148));
#123=EDGE_LOOP('',(#149));
#124=ORIENTED_EDGE('',*,*,#164,.T.);
#125=ORIENTED_EDGE('',*,*,#165,.T.);
#126=ORIENTED_EDGE('',*,*,#166,.T.);
#127=ORIENTED_EDGE('',*,*,#167,.T.);
#128=ORIENTED_EDGE('',*,*,#168,.F.);
#129=ORIENTED_EDGE('',*,*,#169,.T.);
#130=ORIENTED_EDGE('',*,*,#166,.F.);
#131=ORIENTED_EDGE('',*,*,#170,.T.);
#132=ORIENTED_EDGE('',*,*,#171,.T.);
#133=ORIENTED_EDGE('',*,*,#164,.F.);
#134=ORIENTED_EDGE('',*,*,#165,.F.);
#135=ORIENTED_EDGE('',*,*,#172,.T.);
#136=ORIENTED_EDGE('',*,*,#173,.T.);
#137=ORIENTED_EDGE('',*,*,#174,.T.);
#138=ORIENTED_EDGE('',*,*,#168,.T.);
#139=ORIENTED_EDGE('',*,*,#174,.F.);
#140=ORIENTED_EDGE('',*,*,#173,.F.);
#141=ORIENTED_EDGE('',*,*,#175,.T.);
#142=ORIENTED_EDGE('',*,*,#176,.T.);
#143=ORIENTED_EDGE('',*,*,#175,.F.);
#144=ORIENTED_EDGE('',*,*,#176,.F.);
#145=ORIENTED_EDGE('',*,*,#172,.F.);
#146=ORIENTED_EDGE('',*,*,#170,.F.);
#147=ORIENTED_EDGE('',*,*,#167,.F.);
#148=ORIENTED_EDGE('',*,*,#169,.F.);
#149=ORIENTED_EDGE('',*,*,#171,.F.);
#150=VERTEX_POINT('',#276);
#151=VERTEX_POINT('',#279);
#152=VERTEX_POINT('',#281);
#153=VERTEX_POINT('',#284);
#154=VERTEX_POINT('',#286);
#155=VERTEX_POINT('',#289);
#156=VERTEX_POINT('',#292);
#157=VERTEX_POINT('',#294);
#158=VERTEX_POINT('',#298);
#159=VERTEX_POINT('',#300);
#160=VERTEX_POINT('',#303);
#161=VERTEX_POINT('',#307);
#162=VERTEX_POINT('',#308);
#163=VERTEX_POINT('',#311);
#164=EDGE_CURVE('',#150,#150,#177,.T.);
#165=EDGE_CURVE('',#151,#151,#178,.T.);
#166=EDGE_CURVE('',#152,#152,#179,.T.);
#167=EDGE_CURVE('',#153,#153,#180,.T.);
#168=EDGE_CURVE('',#154,#154,#181,.T.);
#169=EDGE_CURVE('',#155,#155,#182,.T.);
#170=EDGE_CURVE('',#156,#156,#183,.T.);
#171=EDGE_CURVE('',#157,#157,#184,.T.);
#172=EDGE_CURVE('',#158,#158,#185,.T.);
#173=EDGE_CURVE('',#159,#159,#186,.T.);
#174=EDGE_CURVE('',#160,#160,#187,.T.);
#175=EDGE_CURVE('',#161,#161,#188,.T.);
#176=EDGE_CURVE('',#163,#163,#189,.T.);
#177=CIRCLE('',#191,3.14734603858307);
#178=CIRCLE('',#193,3.5);
#179=CIRCLE('',#194,3.5);
#180=CIRCLE('',#196,4.5);
#181=CIRCLE('',#197,3.);
#182=CIRCLE('',#199,4.5);
#183=CIRCLE('',#201,5.);
#184=CIRCLE('',#202,5.);
#185=CIRCLE('',#205,2.);
#186=CIRCLE('',#206,2.64734603858307);
#187=CIRCLE('',#208,3.);
#188=CIRCLE('',#211,1.65);
#189=CIRCLE('',#213,1.65);
#190=AXIS2_PLACEMENT_3D('',#274,#218,#219);
#191=AXIS2_PLACEMENT_3D('',#275,#220,#221);
#192=AXIS2_PLACEMENT_3D('',#277,#222,#223);
#193=AXIS2_PLACEMENT_3D('',#278,#224,#225);
#194=AXIS2_PLACEMENT_3D('',#280,#226,#227);
#195=AXIS2_PLACEMENT_3D('',#282,#228,#229);
#196=AXIS2_PLACEMENT_3D('',#283,#230,#231);
#197=AXIS2_PLACEMENT_3D('',#285,#232,#233);
#198=AXIS2_PLACEMENT_3D('',#287,#234,#235);
#199=AXIS2_PLACEMENT_3D('',#288,#236,#237);
#200=AXIS2_PLACEMENT_3D('',#290,#238,#239);
#201=AXIS2_PLACEMENT_3D('',#291,#240,#241);
#202=AXIS2_PLACEMENT_3D('',#293,#242,#243);
#203=AXIS2_PLACEMENT_3D('',#295,#244,#245);
#204=AXIS2_PLACEMENT_3D('',#296,#246,#247);
#205=AXIS2_PLACEMENT_3D('',#297,#248,#249);
#206=AXIS2_PLACEMENT_3D('',#299,#250,#251);
#207=AXIS2_PLACEMENT_3D('',#301,#252,#253);
#208=AXIS2_PLACEMENT_3D('',#302,#254,#255);
#209=AXIS2_PLACEMENT_3D('',#304,#256,#257);
#210=AXIS2_PLACEMENT_3D('',#305,#258,#259);
#211=AXIS2_PLACEMENT_3D('',#306,#260,#261);
#212=AXIS2_PLACEMENT_3D('',#309,#262,#263);
#213=AXIS2_PLACEMENT_3D('',#310,#264,#265);
#214=AXIS2_PLACEMENT_3D('',#312,#266,#267);
#215=AXIS2_PLACEMENT_3D('',#313,#268,#269);
#216=AXIS2_PLACEMENT_3D('',#314,#270,#271);
#217=AXIS2_PLACEMENT_3D('',#315,#272,#273);
#218=DIRECTION('',(0.,0.,1.));
#219=DIRECTION('',(1.,0.,0.));
#220=DIRECTION('',(0.,0.,-1.));
#221=DIRECTION('',(-1.,0.,0.));
#222=DIRECTION('',(0.,0.,-1.));
#223=DIRECTION('',(-1.,0.,0.));
#224=DIRECTION('',(0.,0.,1.));
#225=DIRECTION('',(-1.,0.,0.));
#226=DIRECTION('',(0.,0.,-1.));
#227=DIRECTION('',(1.,0.,0.));
#228=DIRECTION('',(0.,0.,1.));
#229=DIRECTION('',(1.,0.,0.));
#230=DIRECTION('',(0.,0.,1.));
#231=DIRECTION('',(1.,0.,0.));
#232=DIRECTION('',(0.,0.,1.));
#233=DIRECTION('',(1.,0.,0.));
#234=DIRECTION('',(0.,0.,1.));
#235=DIRECTION('',(1.,0.,0.));
#236=DIRECTION('',(0.,0.,-1.));
#237=DIRECTION('',(-1.,0.,0.));
#238=DIRECTION('',(0.,0.,-1.));
#239=DIRECTION('',(-1.,0.,0.));
#240=DIRECTION('',(0.,0.,-1.));
#241=DIRECTION('',(1.,0.,0.));
#242=DIRECTION('',(0.,0.,1.));
#243=DIRECTION('',(-1.,0.,0.));
#244=DIRECTION('',(0.,0.,1.));
#245=DIRECTION('',(1.,0.,0.));
#246=DIRECTION('',(0.,0.,1.));
#247=DIRECTION('',(1.,0.,9.64662515681747E-18));
#248=DIRECTION('',(0.,0.,-1.));
#249=DIRECTION('',(1.,0.,0.));
#250=DIRECTION('',(0.,0.,1.));
#251=DIRECTION('',(1.,0.,0.));
#252=DIRECTION('',(0.,0.,1.));
#253=DIRECTION('',(1.,0.,0.));
#254=DIRECTION('',(0.,0.,-1.));
#255=DIRECTION('',(1.,0.,0.));
#256=DIRECTION('',(0.,0.,1.));
#257=DIRECTION('',(1.,0.,0.));
#258=DIRECTION('',(0.,0.,-1.));
#259=DIRECTION('',(-1.,0.,-7.7540662172338E-17));
#260=DIRECTION('',(0.,0.,1.));
#261=DIRECTION('',(-1.,0.,0.));
#262=DIRECTION('',(0.,0.,1.));
#263=DIRECTION('',(1.,0.,4.60271342936217E-17));
#264=DIRECTION('',(0.,0.,1.));
#265=DIRECTION('',(1.,0.,0.));
#266=DIRECTION('',(0.,0.,-1.));
#267=DIRECTION('',(-1.,0.,0.));
#268=DIRECTION('',(0.,0.,1.));
#269=DIRECTION('',(1.,0.,9.69506134278454E-17));
#270=DIRECTION('',(0.,0.,-1.));
#271=DIRECTION('',(-1.,0.,3.45390438223357E-17));
#272=DIRECTION('',(0.,0.,1.));
#273=DIRECTION('',(1.,0.,-2.5891395163833E-17));
#274=CARTESIAN_POINT('',(0.,0.,0.));
#275=CARTESIAN_POINT('',(0.,0.,0.));
#276=CARTESIAN_POINT('',(-3.14734603858307,0.,0.));
#277=CARTESIAN_POINT('',(0.,0.,0.));
#278=CARTESIAN_POINT('',(0.,0.,2.));
#279=CARTESIAN_POINT('',(-3.5,0.,2.));
#280=CARTESIAN_POINT('',(0.,0.,7.8));
#281=CARTESIAN_POINT('',(3.5,0.,7.8));
#282=CARTESIAN_POINT('',(0.,0.,0.));
#283=CARTESIAN_POINT('',(-4.33680868994202E-16,0.,12.8));
#284=CARTESIAN_POINT('',(4.5,0.,12.8));
#285=CARTESIAN_POINT('',(-2.16840434497101E-16,4.33680868994202E-16,12.8));
#286=CARTESIAN_POINT('',(3.,4.33680868994202E-16,12.8));
#287=CARTESIAN_POINT('',(-4.33680868994202E-16,0.,12.8));
#288=CARTESIAN_POINT('',(-4.33680868994202E-16,0.,7.8));
#289=CARTESIAN_POINT('',(-4.5,0.,7.8));
#290=CARTESIAN_POINT('',(-4.33680868994202E-16,0.,7.8));
#291=CARTESIAN_POINT('',(-4.33680868994202E-16,0.,12.3));
#292=CARTESIAN_POINT('',(5.,0.,12.3));
#293=CARTESIAN_POINT('',(-4.33680868994202E-16,0.,8.3));
#294=CARTESIAN_POINT('',(-5.,0.,8.3));
#295=CARTESIAN_POINT('',(-4.33680868994202E-16,0.,7.8));
#296=CARTESIAN_POINT('',(0.,0.,2.));
#297=CARTESIAN_POINT('',(-4.33680868994202E-16,0.,20.3));
#298=CARTESIAN_POINT('',(2.,0.,20.3));
#299=CARTESIAN_POINT('',(-2.16840434497101E-16,4.33680868994202E-16,20.3));
#300=CARTESIAN_POINT('',(2.64734603858307,4.33680868994202E-16,20.3));
#301=CARTESIAN_POINT('',(-2.16840434497101E-16,4.33680868994202E-16,20.3));
#302=CARTESIAN_POINT('',(-2.16840434497101E-16,4.33680868994202E-16,18.3));
#303=CARTESIAN_POINT('',(3.,4.33680868994202E-16,18.3));
#304=CARTESIAN_POINT('',(-2.16840434497101E-16,4.33680868994202E-16,12.8));
#305=CARTESIAN_POINT('',(-2.16840434497101E-16,4.33680868994202E-16,20.3));
#306=CARTESIAN_POINT('',(-4.33680868994202E-16,0.,5.3));
#307=CARTESIAN_POINT('',(-1.65,0.,5.3));
#308=CARTESIAN_POINT('',(-4.33680868994202E-16,0.,4.34737205583712));
#309=CARTESIAN_POINT('',(-4.33680868994202E-16,0.,5.3));
#310=CARTESIAN_POINT('',(-4.33680868994202E-16,0.,19.95));
#311=CARTESIAN_POINT('',(1.65,0.,19.95));
#312=CARTESIAN_POINT('',(-4.33680868994202E-16,0.,20.3));
#313=CARTESIAN_POINT('',(-4.33680868994202E-16,0.,20.3));
#314=CARTESIAN_POINT('',(-4.33680868994202E-16,0.,12.8));
#315=CARTESIAN_POINT('',(-4.33680868994202E-16,0.,8.3));
#316=MECHANICAL_DESIGN_GEOMETRIC_PRESENTATION_REPRESENTATION('',(#32),#317);
#317=(
GEOMETRIC_REPRESENTATION_CONTEXT(3)
GLOBAL_UNCERTAINTY_ASSIGNED_CONTEXT((#318))
GLOBAL_UNIT_ASSIGNED_CONTEXT((#324,#320,#319))
REPRESENTATION_CONTEXT('GETOUT_STAVE_112','TOP_LEVEL_ASSEMBLY_PART')
);
#318=UNCERTAINTY_MEASURE_WITH_UNIT(LENGTH_MEASURE(2.E-5),#324,
'DISTANCE_ACCURACY_VALUE','Maximum Tolerance applied to model');
#319=(
NAMED_UNIT(*)
SI_UNIT($,.STERADIAN.)
SOLID_ANGLE_UNIT()
);
#320=(
CONVERSION_BASED_UNIT('DEGREE',#322)
NAMED_UNIT(#321)
PLANE_ANGLE_UNIT()
);
#321=DIMENSIONAL_EXPONENTS(0.,0.,0.,0.,0.,0.,0.);
#322=PLANE_ANGLE_MEASURE_WITH_UNIT(PLANE_ANGLE_MEASURE(0.0174532925),#323);
#323=(
NAMED_UNIT(*)
PLANE_ANGLE_UNIT()
SI_UNIT($,.RADIAN.)
);
#324=(
LENGTH_UNIT()
NAMED_UNIT(*)
SI_UNIT(.MILLI.,.METRE.)
);
ENDSEC;
END-ISO-10303-21;
