ISO-10303-21;
HEADER;
/* Generated by software containing ST-Developer
 * from STEP Tools, Inc. (www.steptools.com) 
 */
/* OPTION: using custom schema-name function */

FILE_DESCRIPTION(
/* description */ (''),
/* implementation_level */ '2;1');

FILE_NAME(
/* name */ 'GETOUT_STAVE_113.stp',
/* time_stamp */ '2018-09-20T14:07:14+02:00',
/* author */ (''),
/* organization */ (''),
/* preprocessor_version */ 'ST-DEVELOPER v16.7',
/* originating_system */ 'SIEMENS PLM Software NX 12.0',
/* authorisation */ '');

FILE_SCHEMA (('AUTOMOTIVE_DESIGN { 1 0 10303 214 3 1 1 1 }'));
ENDSEC;

DATA;
#10=PROPERTY_DEFINITION_REPRESENTATION(#14,#12);
#11=PROPERTY_DEFINITION_REPRESENTATION(#15,#13);
#12=REPRESENTATION('',(#16),#483);
#13=REPRESENTATION('',(#17),#483);
#14=PROPERTY_DEFINITION('pmi validation property','',#21);
#15=PROPERTY_DEFINITION('pmi validation property','',#21);
#16=VALUE_REPRESENTATION_ITEM('number of annotations',COUNT_MEASURE(0.));
#17=VALUE_REPRESENTATION_ITEM('number of views',COUNT_MEASURE(0.));
#18=SHAPE_REPRESENTATION_RELATIONSHIP('None',
'relationship between bezA730AE56cd1w-None and bezA730AE56cd1w-None',#30,
#19);
#19=ADVANCED_BREP_SHAPE_REPRESENTATION('bezA730AE56cd1w-None',(#40),#483);
#20=SHAPE_DEFINITION_REPRESENTATION(#21,#30);
#21=PRODUCT_DEFINITION_SHAPE('','',#22);
#22=PRODUCT_DEFINITION(' ','',#24,#23);
#23=PRODUCT_DEFINITION_CONTEXT('part definition',#29,'design');
#24=PRODUCT_DEFINITION_FORMATION_WITH_SPECIFIED_SOURCE(' ',' ',#26,
 .NOT_KNOWN.);
#25=PRODUCT_RELATED_PRODUCT_CATEGORY('part','',(#26));
#26=PRODUCT('bezA730AE56cd1w','bezA730AE56cd1w',' ',(#27));
#27=PRODUCT_CONTEXT(' ',#29,'mechanical');
#28=APPLICATION_PROTOCOL_DEFINITION('international standard',
'automotive_design',2010,#29);
#29=APPLICATION_CONTEXT(
'core data for automotive mechanical design processes');
#30=SHAPE_REPRESENTATION('bezA730AE56cd1w-None',(#294),#483);
#31=PRESENTATION_LAYER_ASSIGNMENT('1','Layer 1',(#40));
#32=STYLED_ITEM('',(#33),#40);
#33=PRESENTATION_STYLE_ASSIGNMENT((#34));
#34=SURFACE_STYLE_USAGE(.BOTH.,#35);
#35=SURFACE_SIDE_STYLE('',(#36));
#36=SURFACE_STYLE_FILL_AREA(#37);
#37=FILL_AREA_STYLE('',(#38));
#38=FILL_AREA_STYLE_COLOUR('',#39);
#39=COLOUR_RGB('Medium Steel',0.596063172350652,0.666666666666667,0.686259250782025);
#40=MANIFOLD_SOLID_BREP('',#41);
#41=CLOSED_SHELL('',(#60,#61,#62,#63,#64,#65,#66,#67,#68,#69,#70,#71,#72,
#73,#74,#75));
#42=CONICAL_SURFACE('',#319,1.75,45.);
#43=CONICAL_SURFACE('',#320,1.75,45.0000000000001);
#44=CONICAL_SURFACE('',#321,2.25,45.0000000000001);
#45=CONICAL_SURFACE('',#322,2.25,45.);
#46=CYLINDRICAL_SURFACE('',#315,1.75);
#47=CYLINDRICAL_SURFACE('',#318,1.75);
#48=CYLINDRICAL_SURFACE('',#323,3.);
#49=CYLINDRICAL_SURFACE('',#324,3.);
#50=CYLINDRICAL_SURFACE('',#325,3.);
#51=CYLINDRICAL_SURFACE('',#326,3.);
#52=FACE_OUTER_BOUND('',#135,.T.);
#53=FACE_OUTER_BOUND('',#136,.T.);
#54=FACE_OUTER_BOUND('',#137,.T.);
#55=FACE_OUTER_BOUND('',#141,.T.);
#56=FACE_OUTER_BOUND('',#154,.T.);
#57=FACE_OUTER_BOUND('',#155,.T.);
#58=FACE_OUTER_BOUND('',#156,.T.);
#59=FACE_OUTER_BOUND('',#157,.T.);
#60=ADVANCED_FACE('',(#114,#115,#116),#76,.T.);
#61=ADVANCED_FACE('',(#52),#77,.T.);
#62=ADVANCED_FACE('',(#53),#78,.T.);
#63=ADVANCED_FACE('',(#54),#79,.T.);
#64=ADVANCED_FACE('',(#117,#118,#119),#80,.T.);
#65=ADVANCED_FACE('',(#55),#81,.T.);
#66=ADVANCED_FACE('',(#120,#121),#46,.F.);
#67=ADVANCED_FACE('',(#122,#123),#47,.F.);
#68=ADVANCED_FACE('',(#124,#125),#42,.F.);
#69=ADVANCED_FACE('',(#126,#127),#43,.F.);
#70=ADVANCED_FACE('',(#128,#129),#44,.F.);
#71=ADVANCED_FACE('',(#130,#131),#45,.F.);
#72=ADVANCED_FACE('',(#56),#48,.T.);
#73=ADVANCED_FACE('',(#57),#49,.T.);
#74=ADVANCED_FACE('',(#58),#50,.T.);
#75=ADVANCED_FACE('',(#59),#51,.T.);
#76=PLANE('',#301);
#77=PLANE('',#302);
#78=PLANE('',#303);
#79=PLANE('',#304);
#80=PLANE('',#311);
#81=PLANE('',#312);
#82=LINE('',#414,#98);
#83=LINE('',#419,#99);
#84=LINE('',#423,#100);
#85=LINE('',#427,#101);
#86=LINE('',#431,#102);
#87=LINE('',#433,#103);
#88=LINE('',#435,#104);
#89=LINE('',#437,#105);
#90=LINE('',#440,#106);
#91=LINE('',#441,#107);
#92=LINE('',#443,#108);
#93=LINE('',#446,#109);
#94=LINE('',#447,#110);
#95=LINE('',#457,#111);
#96=LINE('',#461,#112);
#97=LINE('',#462,#113);
#98=VECTOR('',#333,1.);
#99=VECTOR('',#336,1.);
#100=VECTOR('',#339,1.);
#101=VECTOR('',#342,1.);
#102=VECTOR('',#347,1.);
#103=VECTOR('',#348,1.);
#104=VECTOR('',#349,1.);
#105=VECTOR('',#352,1.);
#106=VECTOR('',#353,1.);
#107=VECTOR('',#354,1.);
#108=VECTOR('',#357,1.);
#109=VECTOR('',#358,1.);
#110=VECTOR('',#359,1.);
#111=VECTOR('',#372,1.);
#112=VECTOR('',#377,1.);
#113=VECTOR('',#378,1.);
#114=FACE_BOUND('',#132,.T.);
#115=FACE_BOUND('',#133,.T.);
#116=FACE_BOUND('',#134,.T.);
#117=FACE_BOUND('',#138,.T.);
#118=FACE_BOUND('',#139,.T.);
#119=FACE_BOUND('',#140,.T.);
#120=FACE_BOUND('',#142,.T.);
#121=FACE_BOUND('',#143,.T.);
#122=FACE_BOUND('',#144,.T.);
#123=FACE_BOUND('',#145,.T.);
#124=FACE_BOUND('',#146,.T.);
#125=FACE_BOUND('',#147,.T.);
#126=FACE_BOUND('',#148,.T.);
#127=FACE_BOUND('',#149,.T.);
#128=FACE_BOUND('',#150,.T.);
#129=FACE_BOUND('',#151,.T.);
#130=FACE_BOUND('',#152,.T.);
#131=FACE_BOUND('',#153,.T.);
#132=EDGE_LOOP('',(#158));
#133=EDGE_LOOP('',(#159));
#134=EDGE_LOOP('',(#160,#161,#162,#163,#164,#165,#166,#167));
#135=EDGE_LOOP('',(#168,#169,#170,#171));
#136=EDGE_LOOP('',(#172,#173,#174,#175));
#137=EDGE_LOOP('',(#176,#177,#178,#179));
#138=EDGE_LOOP('',(#180));
#139=EDGE_LOOP('',(#181));
#140=EDGE_LOOP('',(#182,#183,#184,#185,#186,#187,#188,#189));
#141=EDGE_LOOP('',(#190,#191,#192,#193));
#142=EDGE_LOOP('',(#194));
#143=EDGE_LOOP('',(#195));
#144=EDGE_LOOP('',(#196));
#145=EDGE_LOOP('',(#197));
#146=EDGE_LOOP('',(#198));
#147=EDGE_LOOP('',(#199));
#148=EDGE_LOOP('',(#200));
#149=EDGE_LOOP('',(#201));
#150=EDGE_LOOP('',(#202));
#151=EDGE_LOOP('',(#203));
#152=EDGE_LOOP('',(#204));
#153=EDGE_LOOP('',(#205));
#154=EDGE_LOOP('',(#206,#207,#208,#209));
#155=EDGE_LOOP('',(#210,#211,#212,#213));
#156=EDGE_LOOP('',(#214,#215,#216,#217));
#157=EDGE_LOOP('',(#218,#219,#220,#221));
#158=ORIENTED_EDGE('',*,*,#246,.T.);
#159=ORIENTED_EDGE('',*,*,#247,.T.);
#160=ORIENTED_EDGE('',*,*,#248,.F.);
#161=ORIENTED_EDGE('',*,*,#249,.T.);
#162=ORIENTED_EDGE('',*,*,#250,.F.);
#163=ORIENTED_EDGE('',*,*,#251,.T.);
#164=ORIENTED_EDGE('',*,*,#252,.F.);
#165=ORIENTED_EDGE('',*,*,#253,.T.);
#166=ORIENTED_EDGE('',*,*,#254,.F.);
#167=ORIENTED_EDGE('',*,*,#255,.T.);
#168=ORIENTED_EDGE('',*,*,#250,.T.);
#169=ORIENTED_EDGE('',*,*,#256,.T.);
#170=ORIENTED_EDGE('',*,*,#257,.T.);
#171=ORIENTED_EDGE('',*,*,#258,.T.);
#172=ORIENTED_EDGE('',*,*,#259,.T.);
#173=ORIENTED_EDGE('',*,*,#260,.T.);
#174=ORIENTED_EDGE('',*,*,#248,.T.);
#175=ORIENTED_EDGE('',*,*,#261,.T.);
#176=ORIENTED_EDGE('',*,*,#262,.T.);
#177=ORIENTED_EDGE('',*,*,#263,.T.);
#178=ORIENTED_EDGE('',*,*,#254,.T.);
#179=ORIENTED_EDGE('',*,*,#264,.T.);
#180=ORIENTED_EDGE('',*,*,#265,.T.);
#181=ORIENTED_EDGE('',*,*,#266,.T.);
#182=ORIENTED_EDGE('',*,*,#257,.F.);
#183=ORIENTED_EDGE('',*,*,#267,.T.);
#184=ORIENTED_EDGE('',*,*,#259,.F.);
#185=ORIENTED_EDGE('',*,*,#268,.T.);
#186=ORIENTED_EDGE('',*,*,#262,.F.);
#187=ORIENTED_EDGE('',*,*,#269,.T.);
#188=ORIENTED_EDGE('',*,*,#270,.F.);
#189=ORIENTED_EDGE('',*,*,#271,.T.);
#190=ORIENTED_EDGE('',*,*,#270,.T.);
#191=ORIENTED_EDGE('',*,*,#272,.T.);
#192=ORIENTED_EDGE('',*,*,#252,.T.);
#193=ORIENTED_EDGE('',*,*,#273,.T.);
#194=ORIENTED_EDGE('',*,*,#274,.T.);
#195=ORIENTED_EDGE('',*,*,#275,.T.);
#196=ORIENTED_EDGE('',*,*,#276,.T.);
#197=ORIENTED_EDGE('',*,*,#277,.T.);
#198=ORIENTED_EDGE('',*,*,#265,.F.);
#199=ORIENTED_EDGE('',*,*,#274,.F.);
#200=ORIENTED_EDGE('',*,*,#266,.F.);
#201=ORIENTED_EDGE('',*,*,#276,.F.);
#202=ORIENTED_EDGE('',*,*,#277,.F.);
#203=ORIENTED_EDGE('',*,*,#246,.F.);
#204=ORIENTED_EDGE('',*,*,#275,.F.);
#205=ORIENTED_EDGE('',*,*,#247,.F.);
#206=ORIENTED_EDGE('',*,*,#267,.F.);
#207=ORIENTED_EDGE('',*,*,#256,.F.);
#208=ORIENTED_EDGE('',*,*,#249,.F.);
#209=ORIENTED_EDGE('',*,*,#260,.F.);
#210=ORIENTED_EDGE('',*,*,#268,.F.);
#211=ORIENTED_EDGE('',*,*,#261,.F.);
#212=ORIENTED_EDGE('',*,*,#255,.F.);
#213=ORIENTED_EDGE('',*,*,#263,.F.);
#214=ORIENTED_EDGE('',*,*,#269,.F.);
#215=ORIENTED_EDGE('',*,*,#264,.F.);
#216=ORIENTED_EDGE('',*,*,#253,.F.);
#217=ORIENTED_EDGE('',*,*,#272,.F.);
#218=ORIENTED_EDGE('',*,*,#271,.F.);
#219=ORIENTED_EDGE('',*,*,#273,.F.);
#220=ORIENTED_EDGE('',*,*,#251,.F.);
#221=ORIENTED_EDGE('',*,*,#258,.F.);
#222=VERTEX_POINT('',#411);
#223=VERTEX_POINT('',#413);
#224=VERTEX_POINT('',#415);
#225=VERTEX_POINT('',#416);
#226=VERTEX_POINT('',#418);
#227=VERTEX_POINT('',#420);
#228=VERTEX_POINT('',#422);
#229=VERTEX_POINT('',#424);
#230=VERTEX_POINT('',#426);
#231=VERTEX_POINT('',#428);
#232=VERTEX_POINT('',#432);
#233=VERTEX_POINT('',#434);
#234=VERTEX_POINT('',#438);
#235=VERTEX_POINT('',#439);
#236=VERTEX_POINT('',#444);
#237=VERTEX_POINT('',#445);
#238=VERTEX_POINT('',#450);
#239=VERTEX_POINT('',#452);
#240=VERTEX_POINT('',#456);
#241=VERTEX_POINT('',#458);
#242=VERTEX_POINT('',#465);
#243=VERTEX_POINT('',#467);
#244=VERTEX_POINT('',#470);
#245=VERTEX_POINT('',#472);
#246=EDGE_CURVE('',#222,#222,#278,.T.);
#247=EDGE_CURVE('',#223,#223,#279,.T.);
#248=EDGE_CURVE('',#224,#225,#82,.T.);
#249=EDGE_CURVE('',#224,#226,#280,.T.);
#250=EDGE_CURVE('',#227,#226,#83,.T.);
#251=EDGE_CURVE('',#227,#228,#281,.T.);
#252=EDGE_CURVE('',#229,#228,#84,.T.);
#253=EDGE_CURVE('',#229,#230,#282,.T.);
#254=EDGE_CURVE('',#231,#230,#85,.T.);
#255=EDGE_CURVE('',#231,#225,#283,.T.);
#256=EDGE_CURVE('',#226,#232,#86,.T.);
#257=EDGE_CURVE('',#232,#233,#87,.T.);
#258=EDGE_CURVE('',#233,#227,#88,.T.);
#259=EDGE_CURVE('',#234,#235,#89,.T.);
#260=EDGE_CURVE('',#235,#224,#90,.T.);
#261=EDGE_CURVE('',#225,#234,#91,.T.);
#262=EDGE_CURVE('',#236,#237,#92,.T.);
#263=EDGE_CURVE('',#237,#231,#93,.T.);
#264=EDGE_CURVE('',#230,#236,#94,.T.);
#265=EDGE_CURVE('',#238,#238,#284,.T.);
#266=EDGE_CURVE('',#239,#239,#285,.T.);
#267=EDGE_CURVE('',#232,#235,#286,.T.);
#268=EDGE_CURVE('',#234,#237,#287,.T.);
#269=EDGE_CURVE('',#236,#240,#288,.T.);
#270=EDGE_CURVE('',#241,#240,#95,.T.);
#271=EDGE_CURVE('',#241,#233,#289,.T.);
#272=EDGE_CURVE('',#240,#229,#96,.T.);
#273=EDGE_CURVE('',#228,#241,#97,.T.);
#274=EDGE_CURVE('',#242,#242,#290,.T.);
#275=EDGE_CURVE('',#243,#243,#291,.T.);
#276=EDGE_CURVE('',#244,#244,#292,.T.);
#277=EDGE_CURVE('',#245,#245,#293,.T.);
#278=CIRCLE('',#295,2.25);
#279=CIRCLE('',#296,2.25);
#280=CIRCLE('',#297,3.);
#281=CIRCLE('',#298,3.);
#282=CIRCLE('',#299,3.);
#283=CIRCLE('',#300,3.);
#284=CIRCLE('',#305,2.25);
#285=CIRCLE('',#306,2.25);
#286=CIRCLE('',#307,3.);
#287=CIRCLE('',#308,3.);
#288=CIRCLE('',#309,3.);
#289=CIRCLE('',#310,3.);
#290=CIRCLE('',#313,1.75);
#291=CIRCLE('',#314,1.75);
#292=CIRCLE('',#316,1.75);
#293=CIRCLE('',#317,1.75);
#294=AXIS2_PLACEMENT_3D('',#409,#327,#328);
#295=AXIS2_PLACEMENT_3D('',#410,#329,#330);
#296=AXIS2_PLACEMENT_3D('',#412,#331,#332);
#297=AXIS2_PLACEMENT_3D('',#417,#334,#335);
#298=AXIS2_PLACEMENT_3D('',#421,#337,#338);
#299=AXIS2_PLACEMENT_3D('',#425,#340,#341);
#300=AXIS2_PLACEMENT_3D('',#429,#343,#344);
#301=AXIS2_PLACEMENT_3D('',#430,#345,#346);
#302=AXIS2_PLACEMENT_3D('',#436,#350,#351);
#303=AXIS2_PLACEMENT_3D('',#442,#355,#356);
#304=AXIS2_PLACEMENT_3D('',#448,#360,#361);
#305=AXIS2_PLACEMENT_3D('',#449,#362,#363);
#306=AXIS2_PLACEMENT_3D('',#451,#364,#365);
#307=AXIS2_PLACEMENT_3D('',#453,#366,#367);
#308=AXIS2_PLACEMENT_3D('',#454,#368,#369);
#309=AXIS2_PLACEMENT_3D('',#455,#370,#371);
#310=AXIS2_PLACEMENT_3D('',#459,#373,#374);
#311=AXIS2_PLACEMENT_3D('',#460,#375,#376);
#312=AXIS2_PLACEMENT_3D('',#463,#379,#380);
#313=AXIS2_PLACEMENT_3D('',#464,#381,#382);
#314=AXIS2_PLACEMENT_3D('',#466,#383,#384);
#315=AXIS2_PLACEMENT_3D('',#468,#385,#386);
#316=AXIS2_PLACEMENT_3D('',#469,#387,#388);
#317=AXIS2_PLACEMENT_3D('',#471,#389,#390);
#318=AXIS2_PLACEMENT_3D('',#473,#391,#392);
#319=AXIS2_PLACEMENT_3D('',#474,#393,#394);
#320=AXIS2_PLACEMENT_3D('',#475,#395,#396);
#321=AXIS2_PLACEMENT_3D('',#476,#397,#398);
#322=AXIS2_PLACEMENT_3D('',#477,#399,#400);
#323=AXIS2_PLACEMENT_3D('',#478,#401,#402);
#324=AXIS2_PLACEMENT_3D('',#479,#403,#404);
#325=AXIS2_PLACEMENT_3D('',#480,#405,#406);
#326=AXIS2_PLACEMENT_3D('',#481,#407,#408);
#327=DIRECTION('',(0.,0.,1.));
#328=DIRECTION('',(1.,0.,0.));
#329=DIRECTION('',(0.,0.,-1.));
#330=DIRECTION('',(1.,0.,0.));
#331=DIRECTION('',(0.,0.,-1.));
#332=DIRECTION('',(1.,0.,0.));
#333=DIRECTION('',(0.,1.,0.));
#334=DIRECTION('',(0.,0.,1.));
#335=DIRECTION('',(1.,0.,0.));
#336=DIRECTION('',(-1.,0.,0.));
#337=DIRECTION('',(0.,0.,1.));
#338=DIRECTION('',(1.,0.,0.));
#339=DIRECTION('',(0.,-1.,0.));
#340=DIRECTION('',(0.,0.,1.));
#341=DIRECTION('',(1.,0.,0.));
#342=DIRECTION('',(1.,0.,0.));
#343=DIRECTION('',(0.,0.,1.));
#344=DIRECTION('',(1.,0.,0.));
#345=DIRECTION('',(0.,0.,1.));
#346=DIRECTION('',(1.,0.,0.));
#347=DIRECTION('',(0.,0.,-1.));
#348=DIRECTION('',(1.,0.,0.));
#349=DIRECTION('',(0.,0.,1.));
#350=DIRECTION('',(0.,-1.,0.));
#351=DIRECTION('',(0.,0.,-1.));
#352=DIRECTION('',(0.,-1.,0.));
#353=DIRECTION('',(0.,0.,1.));
#354=DIRECTION('',(0.,0.,-1.));
#355=DIRECTION('',(-1.,0.,0.));
#356=DIRECTION('',(0.,0.,1.));
#357=DIRECTION('',(-1.,0.,0.));
#358=DIRECTION('',(0.,0.,1.));
#359=DIRECTION('',(0.,0.,-1.));
#360=DIRECTION('',(0.,1.,0.));
#361=DIRECTION('',(0.,0.,1.));
#362=DIRECTION('',(0.,0.,1.));
#363=DIRECTION('',(-1.,0.,0.));
#364=DIRECTION('',(0.,0.,1.));
#365=DIRECTION('',(-1.,0.,0.));
#366=DIRECTION('',(0.,0.,-1.));
#367=DIRECTION('',(-1.,0.,0.));
#368=DIRECTION('',(0.,0.,-1.));
#369=DIRECTION('',(-1.,0.,0.));
#370=DIRECTION('',(0.,0.,-1.));
#371=DIRECTION('',(-1.,0.,0.));
#372=DIRECTION('',(0.,1.,0.));
#373=DIRECTION('',(0.,0.,-1.));
#374=DIRECTION('',(-1.,0.,0.));
#375=DIRECTION('',(0.,0.,-1.));
#376=DIRECTION('',(-1.,0.,0.));
#377=DIRECTION('',(0.,0.,1.));
#378=DIRECTION('',(0.,0.,-1.));
#379=DIRECTION('',(1.,0.,0.));
#380=DIRECTION('',(0.,0.,-1.));
#381=DIRECTION('',(0.,0.,-1.));
#382=DIRECTION('',(-1.,0.,0.));
#383=DIRECTION('',(0.,0.,1.));
#384=DIRECTION('',(1.,0.,0.));
#385=DIRECTION('',(0.,0.,-1.));
#386=DIRECTION('',(-1.,0.,0.));
#387=DIRECTION('',(0.,0.,-1.));
#388=DIRECTION('',(-1.,0.,0.));
#389=DIRECTION('',(0.,0.,1.));
#390=DIRECTION('',(1.,0.,0.));
#391=DIRECTION('',(0.,0.,-1.));
#392=DIRECTION('',(-1.,0.,0.));
#393=DIRECTION('',(0.,0.,-1.));
#394=DIRECTION('',(-1.,0.,-5.49812531692175E-17));
#395=DIRECTION('',(0.,0.,-1.));
#396=DIRECTION('',(-1.,0.,-5.49812531692173E-17));
#397=DIRECTION('',(0.,0.,1.));
#398=DIRECTION('',(1.,0.,-1.08176819404889E-16));
#399=DIRECTION('',(0.,0.,1.));
#400=DIRECTION('',(1.,0.,-1.08176819404889E-16));
#401=DIRECTION('',(0.,0.,1.));
#402=DIRECTION('',(1.,0.,0.));
#403=DIRECTION('',(0.,0.,1.));
#404=DIRECTION('',(1.,0.,0.));
#405=DIRECTION('',(0.,0.,1.));
#406=DIRECTION('',(1.,0.,0.));
#407=DIRECTION('',(0.,0.,1.));
#408=DIRECTION('',(1.,0.,0.));
#409=CARTESIAN_POINT('',(0.,0.,0.));
#410=CARTESIAN_POINT('',(30.5,4.,3.));
#411=CARTESIAN_POINT('',(32.75,4.,3.));
#412=CARTESIAN_POINT('',(4.5,4.,3.));
#413=CARTESIAN_POINT('',(6.75,4.,3.));
#414=CARTESIAN_POINT('',(0.,4.,3.));
#415=CARTESIAN_POINT('',(0.,3.,3.));
#416=CARTESIAN_POINT('',(0.,5.,3.));
#417=CARTESIAN_POINT('',(3.,3.,3.));
#418=CARTESIAN_POINT('',(3.,0.,3.));
#419=CARTESIAN_POINT('',(17.5,0.,3.));
#420=CARTESIAN_POINT('',(32.,0.,3.));
#421=CARTESIAN_POINT('',(32.,3.,3.));
#422=CARTESIAN_POINT('',(35.,3.,3.));
#423=CARTESIAN_POINT('',(35.,4.,3.));
#424=CARTESIAN_POINT('',(35.,5.,3.));
#425=CARTESIAN_POINT('',(32.,5.,3.));
#426=CARTESIAN_POINT('',(32.,8.,3.));
#427=CARTESIAN_POINT('',(17.5,8.,3.));
#428=CARTESIAN_POINT('',(3.,8.,3.));
#429=CARTESIAN_POINT('',(3.,5.,3.));
#430=CARTESIAN_POINT('',(17.5,4.,3.));
#431=CARTESIAN_POINT('',(3.,0.,0.));
#432=CARTESIAN_POINT('',(3.,0.,0.));
#433=CARTESIAN_POINT('',(17.5,0.,0.));
#434=CARTESIAN_POINT('',(32.,0.,0.));
#435=CARTESIAN_POINT('',(32.,0.,0.));
#436=CARTESIAN_POINT('',(17.5,0.,0.));
#437=CARTESIAN_POINT('',(0.,4.,0.));
#438=CARTESIAN_POINT('',(0.,5.,0.));
#439=CARTESIAN_POINT('',(0.,3.,0.));
#440=CARTESIAN_POINT('',(0.,3.,0.));
#441=CARTESIAN_POINT('',(0.,5.,0.));
#442=CARTESIAN_POINT('',(0.,4.,0.));
#443=CARTESIAN_POINT('',(17.5,8.,0.));
#444=CARTESIAN_POINT('',(32.,8.,0.));
#445=CARTESIAN_POINT('',(3.,8.,0.));
#446=CARTESIAN_POINT('',(3.,8.,0.));
#447=CARTESIAN_POINT('',(32.,8.,0.));
#448=CARTESIAN_POINT('',(17.5,8.,0.));
#449=CARTESIAN_POINT('',(4.5,4.,0.));
#450=CARTESIAN_POINT('',(2.25,4.,0.));
#451=CARTESIAN_POINT('',(30.5,4.,0.));
#452=CARTESIAN_POINT('',(28.25,4.,0.));
#453=CARTESIAN_POINT('',(3.,3.,0.));
#454=CARTESIAN_POINT('',(3.,5.,0.));
#455=CARTESIAN_POINT('',(32.,5.,0.));
#456=CARTESIAN_POINT('',(35.,5.,0.));
#457=CARTESIAN_POINT('',(35.,4.,0.));
#458=CARTESIAN_POINT('',(35.,3.,0.));
#459=CARTESIAN_POINT('',(32.,3.,0.));
#460=CARTESIAN_POINT('',(17.5,4.,0.));
#461=CARTESIAN_POINT('',(35.,5.,0.));
#462=CARTESIAN_POINT('',(35.,3.,0.));
#463=CARTESIAN_POINT('',(35.,4.,0.));
#464=CARTESIAN_POINT('',(4.5,4.,0.5));
#465=CARTESIAN_POINT('',(2.75,4.,0.5));
#466=CARTESIAN_POINT('',(4.5,4.,2.5));
#467=CARTESIAN_POINT('',(6.25,4.,2.5));
#468=CARTESIAN_POINT('',(4.5,4.,3.));
#469=CARTESIAN_POINT('',(30.5,4.,0.5));
#470=CARTESIAN_POINT('',(28.75,4.,0.5));
#471=CARTESIAN_POINT('',(30.5,4.,2.5));
#472=CARTESIAN_POINT('',(32.25,4.,2.5));
#473=CARTESIAN_POINT('',(30.5,4.,3.));
#474=CARTESIAN_POINT('',(4.5,4.,0.5));
#475=CARTESIAN_POINT('',(30.5,4.,0.5));
#476=CARTESIAN_POINT('',(30.5,4.,3.));
#477=CARTESIAN_POINT('',(4.5,4.,3.));
#478=CARTESIAN_POINT('',(3.,3.,0.));
#479=CARTESIAN_POINT('',(3.,5.,0.));
#480=CARTESIAN_POINT('',(32.,5.,0.));
#481=CARTESIAN_POINT('',(32.,3.,0.));
#482=MECHANICAL_DESIGN_GEOMETRIC_PRESENTATION_REPRESENTATION('',(#32),#483);
#483=(
GEOMETRIC_REPRESENTATION_CONTEXT(3)
GLOBAL_UNCERTAINTY_ASSIGNED_CONTEXT((#484))
GLOBAL_UNIT_ASSIGNED_CONTEXT((#490,#486,#485))
REPRESENTATION_CONTEXT('GETOUT_STAVE_113','TOP_LEVEL_ASSEMBLY_PART')
);
#484=UNCERTAINTY_MEASURE_WITH_UNIT(LENGTH_MEASURE(2.E-5),#490,
'DISTANCE_ACCURACY_VALUE','Maximum Tolerance applied to model');
#485=(
NAMED_UNIT(*)
SI_UNIT($,.STERADIAN.)
SOLID_ANGLE_UNIT()
);
#486=(
CONVERSION_BASED_UNIT('DEGREE',#488)
NAMED_UNIT(#487)
PLANE_ANGLE_UNIT()
);
#487=DIMENSIONAL_EXPONENTS(0.,0.,0.,0.,0.,0.,0.);
#488=PLANE_ANGLE_MEASURE_WITH_UNIT(PLANE_ANGLE_MEASURE(0.0174532925),#489);
#489=(
NAMED_UNIT(*)
PLANE_ANGLE_UNIT()
SI_UNIT($,.RADIAN.)
);
#490=(
LENGTH_UNIT()
NAMED_UNIT(*)
SI_UNIT(.MILLI.,.METRE.)
);
ENDSEC;
END-ISO-10303-21;
