ISO-10303-21;
HEADER;
/* Generated by software containing ST-Developer
 * from STEP Tools, Inc. (www.steptools.com) 
 */
/* OPTION: using custom schema-name function */

FILE_DESCRIPTION(
/* description */ (''),
/* implementation_level */ '2;1');

FILE_NAME(
/* name */ 'GETOUT_STAVE_116.stp',
/* time_stamp */ '2018-09-17T15:59:57+02:00',
/* author */ (''),
/* organization */ (''),
/* preprocessor_version */ 'ST-DEVELOPER v16.7',
/* originating_system */ 'SIEMENS PLM Software NX 12.0',
/* authorisation */ '');

FILE_SCHEMA (('AUTOMOTIVE_DESIGN { 1 0 10303 214 3 1 1 1 }'));
ENDSEC;

DATA;
#10=PROPERTY_DEFINITION_REPRESENTATION(#14,#12);
#11=PROPERTY_DEFINITION_REPRESENTATION(#15,#13);
#12=REPRESENTATION('',(#16),#213);
#13=REPRESENTATION('',(#17),#213);
#14=PROPERTY_DEFINITION('pmi validation property','',#21);
#15=PROPERTY_DEFINITION('pmi validation property','',#21);
#16=VALUE_REPRESENTATION_ITEM('number of annotations',COUNT_MEASURE(0.));
#17=VALUE_REPRESENTATION_ITEM('number of views',COUNT_MEASURE(0.));
#18=SHAPE_REPRESENTATION_RELATIONSHIP('None',
'relationship between bez8324385A6v0x-None and bez8324385A6v0x-None',#30,
#19);
#19=ADVANCED_BREP_SHAPE_REPRESENTATION('bez8324385A6v0x-None',(#40),#213);
#20=SHAPE_DEFINITION_REPRESENTATION(#21,#30);
#21=PRODUCT_DEFINITION_SHAPE('','',#22);
#22=PRODUCT_DEFINITION(' ','',#24,#23);
#23=PRODUCT_DEFINITION_CONTEXT('part definition',#29,'design');
#24=PRODUCT_DEFINITION_FORMATION_WITH_SPECIFIED_SOURCE(' ',' ',#26,
 .NOT_KNOWN.);
#25=PRODUCT_RELATED_PRODUCT_CATEGORY('part','',(#26));
#26=PRODUCT('bez8324385A6v0x','bez8324385A6v0x',' ',(#27));
#27=PRODUCT_CONTEXT(' ',#29,'mechanical');
#28=APPLICATION_PROTOCOL_DEFINITION('international standard',
'automotive_design',2010,#29);
#29=APPLICATION_CONTEXT(
'core data for automotive mechanical design processes');
#30=SHAPE_REPRESENTATION('bez8324385A6v0x-None',(#132),#213);
#31=PRESENTATION_LAYER_ASSIGNMENT('1','Layer 1',(#40));
#32=STYLED_ITEM('',(#33),#40);
#33=PRESENTATION_STYLE_ASSIGNMENT((#34));
#34=SURFACE_STYLE_USAGE(.BOTH.,#35);
#35=SURFACE_SIDE_STYLE('',(#36));
#36=SURFACE_STYLE_FILL_AREA(#37);
#37=FILL_AREA_STYLE('',(#38));
#38=FILL_AREA_STYLE_COLOUR('',#39);
#39=COLOUR_RGB('Medium Steel',0.596063172350652,0.666666666666667,0.686259250782025);
#40=MANIFOLD_SOLID_BREP('',#41);
#41=CLOSED_SHELL('',(#61,#62,#63,#64,#65,#66,#67,#68,#69));
#42=CONICAL_SURFACE('',#140,1.5,18.434948822922);
#43=CONICAL_SURFACE('',#148,2.,45.);
#44=CYLINDRICAL_SURFACE('',#139,2.5);
#45=CYLINDRICAL_SURFACE('',#142,1.6);
#46=CYLINDRICAL_SURFACE('',#149,2.);
#47=FACE_BOUND('',#77,.T.);
#48=FACE_BOUND('',#78,.T.);
#49=FACE_BOUND('',#79,.T.);
#50=FACE_BOUND('',#80,.T.);
#51=FACE_BOUND('',#81,.T.);
#52=FACE_BOUND('',#82,.T.);
#53=FACE_BOUND('',#83,.T.);
#54=FACE_BOUND('',#84,.T.);
#55=FACE_BOUND('',#85,.T.);
#56=FACE_BOUND('',#86,.T.);
#57=FACE_BOUND('',#88,.T.);
#58=FACE_BOUND('',#89,.T.);
#59=FACE_BOUND('',#90,.T.);
#60=FACE_BOUND('',#91,.T.);
#61=ADVANCED_FACE('',(#74),#70,.T.);
#62=ADVANCED_FACE('',(#47,#48),#71,.T.);
#63=ADVANCED_FACE('',(#49,#50),#44,.T.);
#64=ADVANCED_FACE('',(#51,#52),#42,.T.);
#65=ADVANCED_FACE('',(#53,#54),#45,.T.);
#66=ADVANCED_FACE('',(#55,#56),#72,.T.);
#67=ADVANCED_FACE('',(#75),#73,.T.);
#68=ADVANCED_FACE('',(#57,#58),#43,.T.);
#69=ADVANCED_FACE('',(#59,#60),#46,.T.);
#70=PLANE('',#134);
#71=PLANE('',#137);
#72=PLANE('',#144);
#73=PLANE('',#146);
#74=FACE_OUTER_BOUND('',#76,.T.);
#75=FACE_OUTER_BOUND('',#87,.T.);
#76=EDGE_LOOP('',(#92));
#77=EDGE_LOOP('',(#93));
#78=EDGE_LOOP('',(#94));
#79=EDGE_LOOP('',(#95));
#80=EDGE_LOOP('',(#96));
#81=EDGE_LOOP('',(#97));
#82=EDGE_LOOP('',(#98));
#83=EDGE_LOOP('',(#99));
#84=EDGE_LOOP('',(#100));
#85=EDGE_LOOP('',(#101));
#86=EDGE_LOOP('',(#102));
#87=EDGE_LOOP('',(#103));
#88=EDGE_LOOP('',(#104));
#89=EDGE_LOOP('',(#105));
#90=EDGE_LOOP('',(#106));
#91=EDGE_LOOP('',(#107));
#92=ORIENTED_EDGE('',*,*,#116,.T.);
#93=ORIENTED_EDGE('',*,*,#117,.F.);
#94=ORIENTED_EDGE('',*,*,#118,.T.);
#95=ORIENTED_EDGE('',*,*,#119,.T.);
#96=ORIENTED_EDGE('',*,*,#117,.T.);
#97=ORIENTED_EDGE('',*,*,#119,.F.);
#98=ORIENTED_EDGE('',*,*,#116,.F.);
#99=ORIENTED_EDGE('',*,*,#118,.F.);
#100=ORIENTED_EDGE('',*,*,#120,.F.);
#101=ORIENTED_EDGE('',*,*,#121,.F.);
#102=ORIENTED_EDGE('',*,*,#120,.T.);
#103=ORIENTED_EDGE('',*,*,#122,.T.);
#104=ORIENTED_EDGE('',*,*,#122,.F.);
#105=ORIENTED_EDGE('',*,*,#123,.F.);
#106=ORIENTED_EDGE('',*,*,#123,.T.);
#107=ORIENTED_EDGE('',*,*,#121,.T.);
#108=VERTEX_POINT('',#188);
#109=VERTEX_POINT('',#191);
#110=VERTEX_POINT('',#193);
#111=VERTEX_POINT('',#196);
#112=VERTEX_POINT('',#200);
#113=VERTEX_POINT('',#203);
#114=VERTEX_POINT('',#206);
#115=VERTEX_POINT('',#209);
#116=EDGE_CURVE('',#108,#108,#124,.T.);
#117=EDGE_CURVE('',#109,#109,#125,.T.);
#118=EDGE_CURVE('',#110,#110,#126,.T.);
#119=EDGE_CURVE('',#111,#111,#127,.T.);
#120=EDGE_CURVE('',#112,#112,#128,.T.);
#121=EDGE_CURVE('',#113,#113,#129,.T.);
#122=EDGE_CURVE('',#114,#114,#130,.T.);
#123=EDGE_CURVE('',#115,#115,#131,.T.);
#124=CIRCLE('',#133,1.5);
#125=CIRCLE('',#135,2.5);
#126=CIRCLE('',#136,1.6);
#127=CIRCLE('',#138,2.5);
#128=CIRCLE('',#141,1.6);
#129=CIRCLE('',#143,2.);
#130=CIRCLE('',#145,1.5);
#131=CIRCLE('',#147,2.);
#132=AXIS2_PLACEMENT_3D('',#186,#150,#151);
#133=AXIS2_PLACEMENT_3D('',#187,#152,#153);
#134=AXIS2_PLACEMENT_3D('',#189,#154,#155);
#135=AXIS2_PLACEMENT_3D('',#190,#156,#157);
#136=AXIS2_PLACEMENT_3D('',#192,#158,#159);
#137=AXIS2_PLACEMENT_3D('',#194,#160,#161);
#138=AXIS2_PLACEMENT_3D('',#195,#162,#163);
#139=AXIS2_PLACEMENT_3D('',#197,#164,#165);
#140=AXIS2_PLACEMENT_3D('',#198,#166,#167);
#141=AXIS2_PLACEMENT_3D('',#199,#168,#169);
#142=AXIS2_PLACEMENT_3D('',#201,#170,#171);
#143=AXIS2_PLACEMENT_3D('',#202,#172,#173);
#144=AXIS2_PLACEMENT_3D('',#204,#174,#175);
#145=AXIS2_PLACEMENT_3D('',#205,#176,#177);
#146=AXIS2_PLACEMENT_3D('',#207,#178,#179);
#147=AXIS2_PLACEMENT_3D('',#208,#180,#181);
#148=AXIS2_PLACEMENT_3D('',#210,#182,#183);
#149=AXIS2_PLACEMENT_3D('',#211,#184,#185);
#150=DIRECTION('',(0.,0.,1.));
#151=DIRECTION('',(1.,0.,0.));
#152=DIRECTION('',(0.,0.,1.));
#153=DIRECTION('',(1.,0.,0.));
#154=DIRECTION('',(0.,0.,1.));
#155=DIRECTION('',(1.,0.,0.));
#156=DIRECTION('',(0.,0.,1.));
#157=DIRECTION('',(1.,0.,0.));
#158=DIRECTION('',(0.,0.,1.));
#159=DIRECTION('',(1.,0.,0.));
#160=DIRECTION('',(0.,0.,-1.));
#161=DIRECTION('',(-1.,0.,0.));
#162=DIRECTION('',(0.,0.,-1.));
#163=DIRECTION('',(1.,0.,0.));
#164=DIRECTION('',(0.,0.,1.));
#165=DIRECTION('',(1.,0.,0.));
#166=DIRECTION('',(0.,0.,-1.));
#167=DIRECTION('',(-1.,0.,2.59042828667517E-17));
#168=DIRECTION('',(0.,0.,-1.));
#169=DIRECTION('',(1.,0.,0.));
#170=DIRECTION('',(0.,0.,1.));
#171=DIRECTION('',(1.,0.,0.));
#172=DIRECTION('',(0.,0.,-1.));
#173=DIRECTION('',(1.,0.,0.));
#174=DIRECTION('',(0.,0.,1.));
#175=DIRECTION('',(1.,0.,0.));
#176=DIRECTION('',(0.,0.,-1.));
#177=DIRECTION('',(-1.,0.,0.));
#178=DIRECTION('',(0.,0.,-1.));
#179=DIRECTION('',(-1.,0.,0.));
#180=DIRECTION('',(0.,0.,1.));
#181=DIRECTION('',(-1.,0.,0.));
#182=DIRECTION('',(0.,0.,1.));
#183=DIRECTION('',(1.,0.,-5.49675352916803E-17));
#184=DIRECTION('',(0.,0.,1.));
#185=DIRECTION('',(1.,0.,0.));
#186=CARTESIAN_POINT('',(0.,0.,0.));
#187=CARTESIAN_POINT('',(-5.42101086242752E-17,5.42101086242752E-17,10.));
#188=CARTESIAN_POINT('',(1.5,5.42101086242752E-17,10.));
#189=CARTESIAN_POINT('',(-5.42101086242752E-17,5.42101086242752E-17,10.));
#190=CARTESIAN_POINT('',(-5.42101086242752E-17,5.42101086242752E-17,5.));
#191=CARTESIAN_POINT('',(2.5,5.42101086242752E-17,5.));
#192=CARTESIAN_POINT('',(0.,0.,5.));
#193=CARTESIAN_POINT('',(1.6,0.,5.));
#194=CARTESIAN_POINT('',(-5.42101086242752E-17,5.42101086242752E-17,5.));
#195=CARTESIAN_POINT('',(-5.42101086242752E-17,5.42101086242752E-17,7.));
#196=CARTESIAN_POINT('',(2.5,5.42101086242752E-17,7.));
#197=CARTESIAN_POINT('',(-5.42101086242752E-17,5.42101086242752E-17,5.));
#198=CARTESIAN_POINT('',(-5.42101086242752E-17,5.42101086242752E-17,10.));
#199=CARTESIAN_POINT('',(0.,0.,3.5));
#200=CARTESIAN_POINT('',(1.6,0.,3.5));
#201=CARTESIAN_POINT('',(0.,0.,4.25));
#202=CARTESIAN_POINT('',(0.,0.,3.5));
#203=CARTESIAN_POINT('',(2.,0.,3.5));
#204=CARTESIAN_POINT('',(0.,0.,3.5));
#205=CARTESIAN_POINT('',(0.,0.,0.));
#206=CARTESIAN_POINT('',(-1.5,0.,0.));
#207=CARTESIAN_POINT('',(0.,0.,0.));
#208=CARTESIAN_POINT('',(0.,0.,0.5));
#209=CARTESIAN_POINT('',(-2.,0.,0.5));
#210=CARTESIAN_POINT('',(0.,0.,0.5));
#211=CARTESIAN_POINT('',(0.,0.,0.));
#212=MECHANICAL_DESIGN_GEOMETRIC_PRESENTATION_REPRESENTATION('',(#32),#213);
#213=(
GEOMETRIC_REPRESENTATION_CONTEXT(3)
GLOBAL_UNCERTAINTY_ASSIGNED_CONTEXT((#214))
GLOBAL_UNIT_ASSIGNED_CONTEXT((#220,#216,#215))
REPRESENTATION_CONTEXT('GETOUT_STAVE_116','TOP_LEVEL_ASSEMBLY_PART')
);
#214=UNCERTAINTY_MEASURE_WITH_UNIT(LENGTH_MEASURE(2.E-5),#220,
'DISTANCE_ACCURACY_VALUE','Maximum Tolerance applied to model');
#215=(
NAMED_UNIT(*)
SI_UNIT($,.STERADIAN.)
SOLID_ANGLE_UNIT()
);
#216=(
CONVERSION_BASED_UNIT('DEGREE',#218)
NAMED_UNIT(#217)
PLANE_ANGLE_UNIT()
);
#217=DIMENSIONAL_EXPONENTS(0.,0.,0.,0.,0.,0.,0.);
#218=PLANE_ANGLE_MEASURE_WITH_UNIT(PLANE_ANGLE_MEASURE(0.0174532925),#219);
#219=(
NAMED_UNIT(*)
PLANE_ANGLE_UNIT()
SI_UNIT($,.RADIAN.)
);
#220=(
LENGTH_UNIT()
NAMED_UNIT(*)
SI_UNIT(.MILLI.,.METRE.)
);
ENDSEC;
END-ISO-10303-21;
