ISO-10303-21;
HEADER;
/* Generated by software containing ST-Developer
 * from STEP Tools, Inc. (www.steptools.com) 
 */
/* OPTION: using custom schema-name function */

FILE_DESCRIPTION(
/* description */ (''),
/* implementation_level */ '2;1');

FILE_NAME(
/* name */ 'GETOUT_STAVE_124.stp',
/* time_stamp */ '2018-09-20T14:11:26+02:00',
/* author */ (''),
/* organization */ (''),
/* preprocessor_version */ 'ST-DEVELOPER v16.7',
/* originating_system */ 'SIEMENS PLM Software NX 12.0',
/* authorisation */ '');

FILE_SCHEMA (('AUTOMOTIVE_DESIGN { 1 0 10303 214 3 1 1 1 }'));
ENDSEC;

DATA;
#10=PROPERTY_DEFINITION_REPRESENTATION(#14,#12);
#11=PROPERTY_DEFINITION_REPRESENTATION(#15,#13);
#12=REPRESENTATION('',(#16),#373);
#13=REPRESENTATION('',(#17),#373);
#14=PROPERTY_DEFINITION('pmi validation property','',#21);
#15=PROPERTY_DEFINITION('pmi validation property','',#21);
#16=VALUE_REPRESENTATION_ITEM('number of annotations',COUNT_MEASURE(0.));
#17=VALUE_REPRESENTATION_ITEM('number of views',COUNT_MEASURE(0.));
#18=SHAPE_REPRESENTATION_RELATIONSHIP('None',
'relationship between bezA730AE56cd2z-None and bezA730AE56cd2z-None',#30,
#19);
#19=ADVANCED_BREP_SHAPE_REPRESENTATION('bezA730AE56cd2z-None',(#40),#373);
#20=SHAPE_DEFINITION_REPRESENTATION(#21,#30);
#21=PRODUCT_DEFINITION_SHAPE('','',#22);
#22=PRODUCT_DEFINITION(' ','',#24,#23);
#23=PRODUCT_DEFINITION_CONTEXT('part definition',#29,'design');
#24=PRODUCT_DEFINITION_FORMATION_WITH_SPECIFIED_SOURCE(' ',' ',#26,
 .NOT_KNOWN.);
#25=PRODUCT_RELATED_PRODUCT_CATEGORY('part','',(#26));
#26=PRODUCT('bezA730AE56cd2z','bezA730AE56cd2z',' ',(#27));
#27=PRODUCT_CONTEXT(' ',#29,'mechanical');
#28=APPLICATION_PROTOCOL_DEFINITION('international standard',
'automotive_design',2010,#29);
#29=APPLICATION_CONTEXT(
'core data for automotive mechanical design processes');
#30=SHAPE_REPRESENTATION('bezA730AE56cd2z-None',(#220),#373);
#31=PRESENTATION_LAYER_ASSIGNMENT('1','Layer 1',(#40));
#32=STYLED_ITEM('',(#33),#40);
#33=PRESENTATION_STYLE_ASSIGNMENT((#34));
#34=SURFACE_STYLE_USAGE(.BOTH.,#35);
#35=SURFACE_SIDE_STYLE('',(#36));
#36=SURFACE_STYLE_FILL_AREA(#37);
#37=FILL_AREA_STYLE('',(#38));
#38=FILL_AREA_STYLE_COLOUR('',#39);
#39=COLOUR_RGB('Medium Steel',0.596063172350652,0.666666666666667,0.686259250782025);
#40=MANIFOLD_SOLID_BREP('',#41);
#41=CLOSED_SHELL('',(#56,#57,#58,#59,#60,#61,#62,#63,#64,#65,#66,#67,#68,
#69,#70,#71,#72));
#42=TOROIDAL_SURFACE('',#252,3.45,0.3);
#43=CONICAL_SURFACE('',#234,8.,45.);
#44=CONICAL_SURFACE('',#235,7.5,45.);
#45=CONICAL_SURFACE('',#236,5.5,45.);
#46=CONICAL_SURFACE('',#243,2.5,45.);
#47=CONICAL_SURFACE('',#249,4.,45.);
#48=CONICAL_SURFACE('',#253,3.15,60.);
#49=FACE_OUTER_BOUND('',#112,.T.);
#50=FACE_OUTER_BOUND('',#125,.T.);
#51=CYLINDRICAL_SURFACE('',#226,5.5);
#52=CYLINDRICAL_SURFACE('',#233,8.);
#53=CYLINDRICAL_SURFACE('',#239,3.15);
#54=CYLINDRICAL_SURFACE('',#245,3.);
#55=CYLINDRICAL_SURFACE('',#251,4.);
#56=ADVANCED_FACE('',(#78,#79),#73,.T.);
#57=ADVANCED_FACE('',(#80,#81),#51,.T.);
#58=ADVANCED_FACE('',(#49),#74,.T.);
#59=ADVANCED_FACE('',(#82,#83),#75,.T.);
#60=ADVANCED_FACE('',(#84,#85),#52,.T.);
#61=ADVANCED_FACE('',(#86,#87),#43,.T.);
#62=ADVANCED_FACE('',(#88,#89),#44,.T.);
#63=ADVANCED_FACE('',(#90,#91),#45,.T.);
#64=ADVANCED_FACE('',(#92,#93),#53,.T.);
#65=ADVANCED_FACE('',(#50),#76,.T.);
#66=ADVANCED_FACE('',(#94,#95),#46,.T.);
#67=ADVANCED_FACE('',(#96,#97),#54,.T.);
#68=ADVANCED_FACE('',(#98,#99),#77,.T.);
#69=ADVANCED_FACE('',(#100,#101),#47,.T.);
#70=ADVANCED_FACE('',(#102,#103),#55,.T.);
#71=ADVANCED_FACE('',(#104,#105),#42,.F.);
#72=ADVANCED_FACE('',(#106,#107),#48,.T.);
#73=PLANE('',#223);
#74=PLANE('',#228);
#75=PLANE('',#230);
#76=PLANE('',#241);
#77=PLANE('',#247);
#78=FACE_BOUND('',#108,.T.);
#79=FACE_BOUND('',#109,.T.);
#80=FACE_BOUND('',#110,.T.);
#81=FACE_BOUND('',#111,.T.);
#82=FACE_BOUND('',#113,.T.);
#83=FACE_BOUND('',#114,.T.);
#84=FACE_BOUND('',#115,.T.);
#85=FACE_BOUND('',#116,.T.);
#86=FACE_BOUND('',#117,.T.);
#87=FACE_BOUND('',#118,.T.);
#88=FACE_BOUND('',#119,.T.);
#89=FACE_BOUND('',#120,.T.);
#90=FACE_BOUND('',#121,.T.);
#91=FACE_BOUND('',#122,.T.);
#92=FACE_BOUND('',#123,.T.);
#93=FACE_BOUND('',#124,.T.);
#94=FACE_BOUND('',#126,.T.);
#95=FACE_BOUND('',#127,.T.);
#96=FACE_BOUND('',#128,.T.);
#97=FACE_BOUND('',#129,.T.);
#98=FACE_BOUND('',#130,.T.);
#99=FACE_BOUND('',#131,.T.);
#100=FACE_BOUND('',#132,.T.);
#101=FACE_BOUND('',#133,.T.);
#102=FACE_BOUND('',#134,.T.);
#103=FACE_BOUND('',#135,.T.);
#104=FACE_BOUND('',#136,.T.);
#105=FACE_BOUND('',#137,.T.);
#106=FACE_BOUND('',#138,.T.);
#107=FACE_BOUND('',#139,.T.);
#108=EDGE_LOOP('',(#140));
#109=EDGE_LOOP('',(#141));
#110=EDGE_LOOP('',(#142));
#111=EDGE_LOOP('',(#143));
#112=EDGE_LOOP('',(#144));
#113=EDGE_LOOP('',(#145));
#114=EDGE_LOOP('',(#146));
#115=EDGE_LOOP('',(#147));
#116=EDGE_LOOP('',(#148));
#117=EDGE_LOOP('',(#149));
#118=EDGE_LOOP('',(#150));
#119=EDGE_LOOP('',(#151));
#120=EDGE_LOOP('',(#152));
#121=EDGE_LOOP('',(#153));
#122=EDGE_LOOP('',(#154));
#123=EDGE_LOOP('',(#155));
#124=EDGE_LOOP('',(#156));
#125=EDGE_LOOP('',(#157));
#126=EDGE_LOOP('',(#158));
#127=EDGE_LOOP('',(#159));
#128=EDGE_LOOP('',(#160));
#129=EDGE_LOOP('',(#161));
#130=EDGE_LOOP('',(#162));
#131=EDGE_LOOP('',(#163));
#132=EDGE_LOOP('',(#164));
#133=EDGE_LOOP('',(#165));
#134=EDGE_LOOP('',(#166));
#135=EDGE_LOOP('',(#167));
#136=EDGE_LOOP('',(#168));
#137=EDGE_LOOP('',(#169));
#138=EDGE_LOOP('',(#170));
#139=EDGE_LOOP('',(#171));
#140=ORIENTED_EDGE('',*,*,#188,.T.);
#141=ORIENTED_EDGE('',*,*,#189,.T.);
#142=ORIENTED_EDGE('',*,*,#190,.T.);
#143=ORIENTED_EDGE('',*,*,#191,.F.);
#144=ORIENTED_EDGE('',*,*,#192,.T.);
#145=ORIENTED_EDGE('',*,*,#193,.T.);
#146=ORIENTED_EDGE('',*,*,#191,.T.);
#147=ORIENTED_EDGE('',*,*,#194,.T.);
#148=ORIENTED_EDGE('',*,*,#195,.T.);
#149=ORIENTED_EDGE('',*,*,#193,.F.);
#150=ORIENTED_EDGE('',*,*,#194,.F.);
#151=ORIENTED_EDGE('',*,*,#195,.F.);
#152=ORIENTED_EDGE('',*,*,#192,.F.);
#153=ORIENTED_EDGE('',*,*,#189,.F.);
#154=ORIENTED_EDGE('',*,*,#190,.F.);
#155=ORIENTED_EDGE('',*,*,#196,.T.);
#156=ORIENTED_EDGE('',*,*,#197,.T.);
#157=ORIENTED_EDGE('',*,*,#198,.T.);
#158=ORIENTED_EDGE('',*,*,#199,.F.);
#159=ORIENTED_EDGE('',*,*,#198,.F.);
#160=ORIENTED_EDGE('',*,*,#199,.T.);
#161=ORIENTED_EDGE('',*,*,#200,.T.);
#162=ORIENTED_EDGE('',*,*,#201,.T.);
#163=ORIENTED_EDGE('',*,*,#200,.F.);
#164=ORIENTED_EDGE('',*,*,#201,.F.);
#165=ORIENTED_EDGE('',*,*,#202,.F.);
#166=ORIENTED_EDGE('',*,*,#203,.T.);
#167=ORIENTED_EDGE('',*,*,#202,.T.);
#168=ORIENTED_EDGE('',*,*,#188,.F.);
#169=ORIENTED_EDGE('',*,*,#196,.F.);
#170=ORIENTED_EDGE('',*,*,#203,.F.);
#171=ORIENTED_EDGE('',*,*,#197,.F.);
#172=VERTEX_POINT('',#324);
#173=VERTEX_POINT('',#326);
#174=VERTEX_POINT('',#329);
#175=VERTEX_POINT('',#331);
#176=VERTEX_POINT('',#334);
#177=VERTEX_POINT('',#337);
#178=VERTEX_POINT('',#340);
#179=VERTEX_POINT('',#342);
#180=VERTEX_POINT('',#348);
#181=VERTEX_POINT('',#350);
#182=VERTEX_POINT('',#353);
#183=VERTEX_POINT('',#356);
#184=VERTEX_POINT('',#359);
#185=VERTEX_POINT('',#362);
#186=VERTEX_POINT('',#365);
#187=VERTEX_POINT('',#368);
#188=EDGE_CURVE('',#172,#172,#204,.T.);
#189=EDGE_CURVE('',#173,#173,#205,.T.);
#190=EDGE_CURVE('',#174,#174,#206,.T.);
#191=EDGE_CURVE('',#175,#175,#207,.T.);
#192=EDGE_CURVE('',#176,#176,#208,.T.);
#193=EDGE_CURVE('',#177,#177,#209,.T.);
#194=EDGE_CURVE('',#178,#178,#210,.T.);
#195=EDGE_CURVE('',#179,#179,#211,.T.);
#196=EDGE_CURVE('',#180,#180,#212,.T.);
#197=EDGE_CURVE('',#181,#181,#213,.T.);
#198=EDGE_CURVE('',#182,#182,#214,.T.);
#199=EDGE_CURVE('',#183,#183,#215,.T.);
#200=EDGE_CURVE('',#184,#184,#216,.T.);
#201=EDGE_CURVE('',#185,#185,#217,.T.);
#202=EDGE_CURVE('',#186,#186,#218,.T.);
#203=EDGE_CURVE('',#187,#187,#219,.T.);
#204=CIRCLE('',#221,3.45);
#205=CIRCLE('',#222,5.);
#206=CIRCLE('',#224,5.5);
#207=CIRCLE('',#225,5.5);
#208=CIRCLE('',#227,7.5);
#209=CIRCLE('',#229,7.5);
#210=CIRCLE('',#231,8.);
#211=CIRCLE('',#232,8.);
#212=CIRCLE('',#237,3.15);
#213=CIRCLE('',#238,3.15);
#214=CIRCLE('',#240,2.5);
#215=CIRCLE('',#242,3.);
#216=CIRCLE('',#244,3.);
#217=CIRCLE('',#246,3.5);
#218=CIRCLE('',#248,4.);
#219=CIRCLE('',#250,4.);
#220=AXIS2_PLACEMENT_3D('',#322,#254,#255);
#221=AXIS2_PLACEMENT_3D('',#323,#256,#257);
#222=AXIS2_PLACEMENT_3D('',#325,#258,#259);
#223=AXIS2_PLACEMENT_3D('',#327,#260,#261);
#224=AXIS2_PLACEMENT_3D('',#328,#262,#263);
#225=AXIS2_PLACEMENT_3D('',#330,#264,#265);
#226=AXIS2_PLACEMENT_3D('',#332,#266,#267);
#227=AXIS2_PLACEMENT_3D('',#333,#268,#269);
#228=AXIS2_PLACEMENT_3D('',#335,#270,#271);
#229=AXIS2_PLACEMENT_3D('',#336,#272,#273);
#230=AXIS2_PLACEMENT_3D('',#338,#274,#275);
#231=AXIS2_PLACEMENT_3D('',#339,#276,#277);
#232=AXIS2_PLACEMENT_3D('',#341,#278,#279);
#233=AXIS2_PLACEMENT_3D('',#343,#280,#281);
#234=AXIS2_PLACEMENT_3D('',#344,#282,#283);
#235=AXIS2_PLACEMENT_3D('',#345,#284,#285);
#236=AXIS2_PLACEMENT_3D('',#346,#286,#287);
#237=AXIS2_PLACEMENT_3D('',#347,#288,#289);
#238=AXIS2_PLACEMENT_3D('',#349,#290,#291);
#239=AXIS2_PLACEMENT_3D('',#351,#292,#293);
#240=AXIS2_PLACEMENT_3D('',#352,#294,#295);
#241=AXIS2_PLACEMENT_3D('',#354,#296,#297);
#242=AXIS2_PLACEMENT_3D('',#355,#298,#299);
#243=AXIS2_PLACEMENT_3D('',#357,#300,#301);
#244=AXIS2_PLACEMENT_3D('',#358,#302,#303);
#245=AXIS2_PLACEMENT_3D('',#360,#304,#305);
#246=AXIS2_PLACEMENT_3D('',#361,#306,#307);
#247=AXIS2_PLACEMENT_3D('',#363,#308,#309);
#248=AXIS2_PLACEMENT_3D('',#364,#310,#311);
#249=AXIS2_PLACEMENT_3D('',#366,#312,#313);
#250=AXIS2_PLACEMENT_3D('',#367,#314,#315);
#251=AXIS2_PLACEMENT_3D('',#369,#316,#317);
#252=AXIS2_PLACEMENT_3D('',#370,#318,#319);
#253=AXIS2_PLACEMENT_3D('',#371,#320,#321);
#254=DIRECTION('',(0.,0.,1.));
#255=DIRECTION('',(1.,0.,0.));
#256=DIRECTION('',(0.,-1.,0.));
#257=DIRECTION('',(0.,0.,1.));
#258=DIRECTION('',(0.,1.,0.));
#259=DIRECTION('',(0.,0.,1.));
#260=DIRECTION('',(0.,1.,0.));
#261=DIRECTION('',(0.,0.,1.));
#262=DIRECTION('',(0.,-1.,0.));
#263=DIRECTION('',(0.,0.,1.));
#264=DIRECTION('',(0.,-1.,0.));
#265=DIRECTION('',(0.,0.,-1.));
#266=DIRECTION('',(0.,-1.,0.));
#267=DIRECTION('',(0.,0.,-1.));
#268=DIRECTION('',(0.,-1.,0.));
#269=DIRECTION('',(0.,0.,-1.));
#270=DIRECTION('',(0.,-1.,0.));
#271=DIRECTION('',(0.,0.,-1.));
#272=DIRECTION('',(0.,1.,0.));
#273=DIRECTION('',(0.,0.,1.));
#274=DIRECTION('',(0.,1.,0.));
#275=DIRECTION('',(0.,0.,1.));
#276=DIRECTION('',(0.,-1.,0.));
#277=DIRECTION('',(0.,0.,1.));
#278=DIRECTION('',(0.,1.,0.));
#279=DIRECTION('',(0.,0.,-1.));
#280=DIRECTION('',(0.,-1.,0.));
#281=DIRECTION('',(0.,0.,-1.));
#282=DIRECTION('',(0.,-1.,0.));
#283=DIRECTION('',(0.,1.03257349760524E-16,-1.));
#284=DIRECTION('',(0.,1.,0.));
#285=DIRECTION('',(0.,4.13234376411349E-17,1.));
#286=DIRECTION('',(0.,-1.,0.));
#287=DIRECTION('',(0.,5.47762012553591E-17,-1.));
#288=DIRECTION('',(0.,1.,0.));
#289=DIRECTION('',(0.,0.,1.));
#290=DIRECTION('',(0.,-1.,0.));
#291=DIRECTION('',(0.,0.,1.));
#292=DIRECTION('',(0.,1.,0.));
#293=DIRECTION('',(0.,0.,1.));
#294=DIRECTION('',(0.,1.,0.));
#295=DIRECTION('',(0.,0.,1.));
#296=DIRECTION('',(0.,1.,0.));
#297=DIRECTION('',(0.,0.,1.));
#298=DIRECTION('',(0.,-1.,0.));
#299=DIRECTION('',(0.,0.,1.));
#300=DIRECTION('',(0.,-1.,0.));
#301=DIRECTION('',(0.,-2.76863597163381E-17,-1.));
#302=DIRECTION('',(0.,1.,0.));
#303=DIRECTION('',(0.,0.,1.));
#304=DIRECTION('',(0.,1.,0.));
#305=DIRECTION('',(0.,0.,1.));
#306=DIRECTION('',(0.,1.,0.));
#307=DIRECTION('',(0.,0.,1.));
#308=DIRECTION('',(0.,1.,0.));
#309=DIRECTION('',(0.,0.,1.));
#310=DIRECTION('',(0.,-1.,0.));
#311=DIRECTION('',(0.,0.,1.));
#312=DIRECTION('',(0.,-1.,0.));
#313=DIRECTION('',(0.,-4.49231179037819E-17,-1.));
#314=DIRECTION('',(0.,1.,0.));
#315=DIRECTION('',(0.,0.,1.));
#316=DIRECTION('',(0.,1.,0.));
#317=DIRECTION('',(1.,0.,0.));
#318=DIRECTION('',(0.,1.,0.));
#319=DIRECTION('',(0.,0.,1.));
#320=DIRECTION('',(0.,1.,0.));
#321=DIRECTION('',(0.,9.99724912765145E-19,1.));
#322=CARTESIAN_POINT('',(0.,0.,0.));
#323=CARTESIAN_POINT('',(0.,0.,0.));
#324=CARTESIAN_POINT('',(0.,0.,3.45));
#325=CARTESIAN_POINT('',(0.,0.,0.));
#326=CARTESIAN_POINT('',(0.,0.,5.));
#327=CARTESIAN_POINT('',(0.,0.,0.));
#328=CARTESIAN_POINT('',(0.,-0.5,0.));
#329=CARTESIAN_POINT('',(0.,-0.5,5.5));
#330=CARTESIAN_POINT('',(0.,-6.5,0.));
#331=CARTESIAN_POINT('',(0.,-6.5,-5.5));
#332=CARTESIAN_POINT('',(0.,0.,0.));
#333=CARTESIAN_POINT('',(-4.33680868994202E-16,-14.5,1.0842021724855E-16));
#334=CARTESIAN_POINT('',(-4.33680868994202E-16,-14.5,-7.5));
#335=CARTESIAN_POINT('',(-4.33680868994202E-16,-14.5,1.0842021724855E-16));
#336=CARTESIAN_POINT('',(-4.33680868994202E-16,-6.5,1.0842021724855E-16));
#337=CARTESIAN_POINT('',(-4.33680868994202E-16,-6.5,7.5));
#338=CARTESIAN_POINT('',(-4.33680868994202E-16,-6.5,1.0842021724855E-16));
#339=CARTESIAN_POINT('',(-4.33680868994202E-16,-7.,1.0842021724855E-16));
#340=CARTESIAN_POINT('',(-4.33680868994202E-16,-7.,8.));
#341=CARTESIAN_POINT('',(-4.33680868994202E-16,-14.,1.0842021724855E-16));
#342=CARTESIAN_POINT('',(-4.33680868994202E-16,-14.,-8.));
#343=CARTESIAN_POINT('',(-4.33680868994202E-16,-6.5,1.0842021724855E-16));
#344=CARTESIAN_POINT('',(-4.33680868994202E-16,-7.,1.0842021724855E-16));
#345=CARTESIAN_POINT('',(-4.33680868994202E-16,-14.5,1.0842021724855E-16));
#346=CARTESIAN_POINT('',(0.,-0.5,0.));
#347=CARTESIAN_POINT('',(0.,0.3,0.));
#348=CARTESIAN_POINT('',(0.,0.3,3.15));
#349=CARTESIAN_POINT('',(0.,2.,0.));
#350=CARTESIAN_POINT('',(0.,2.,3.15));
#351=CARTESIAN_POINT('',(0.,1.,0.));
#352=CARTESIAN_POINT('',(0.,25.5,1.0842021724855E-16));
#353=CARTESIAN_POINT('',(0.,25.5,2.5));
#354=CARTESIAN_POINT('',(0.,25.5,1.0842021724855E-16));
#355=CARTESIAN_POINT('',(0.,25.,1.0842021724855E-16));
#356=CARTESIAN_POINT('',(0.,25.,3.));
#357=CARTESIAN_POINT('',(0.,25.5,1.0842021724855E-16));
#358=CARTESIAN_POINT('',(0.,13.,1.0842021724855E-16));
#359=CARTESIAN_POINT('',(0.,13.,3.));
#360=CARTESIAN_POINT('',(0.,13.,1.0842021724855E-16));
#361=CARTESIAN_POINT('',(0.,13.,0.));
#362=CARTESIAN_POINT('',(0.,13.,3.5));
#363=CARTESIAN_POINT('',(0.,13.,0.));
#364=CARTESIAN_POINT('',(0.,12.5,0.));
#365=CARTESIAN_POINT('',(0.,12.5,4.));
#366=CARTESIAN_POINT('',(0.,12.5,0.));
#367=CARTESIAN_POINT('',(0.,2.49074772881118,0.));
#368=CARTESIAN_POINT('',(0.,2.49074772881118,4.));
#369=CARTESIAN_POINT('',(0.,0.,0.));
#370=CARTESIAN_POINT('',(0.,0.3,0.));
#371=CARTESIAN_POINT('',(0.,2.,0.));
#372=MECHANICAL_DESIGN_GEOMETRIC_PRESENTATION_REPRESENTATION('',(#32),#373);
#373=(
GEOMETRIC_REPRESENTATION_CONTEXT(3)
GLOBAL_UNCERTAINTY_ASSIGNED_CONTEXT((#374))
GLOBAL_UNIT_ASSIGNED_CONTEXT((#380,#376,#375))
REPRESENTATION_CONTEXT('GETOUT_STAVE_124','TOP_LEVEL_ASSEMBLY_PART')
);
#374=UNCERTAINTY_MEASURE_WITH_UNIT(LENGTH_MEASURE(2.E-5),#380,
'DISTANCE_ACCURACY_VALUE','Maximum Tolerance applied to model');
#375=(
NAMED_UNIT(*)
SI_UNIT($,.STERADIAN.)
SOLID_ANGLE_UNIT()
);
#376=(
CONVERSION_BASED_UNIT('DEGREE',#378)
NAMED_UNIT(#377)
PLANE_ANGLE_UNIT()
);
#377=DIMENSIONAL_EXPONENTS(0.,0.,0.,0.,0.,0.,0.);
#378=PLANE_ANGLE_MEASURE_WITH_UNIT(PLANE_ANGLE_MEASURE(0.0174532925),#379);
#379=(
NAMED_UNIT(*)
PLANE_ANGLE_UNIT()
SI_UNIT($,.RADIAN.)
);
#380=(
LENGTH_UNIT()
NAMED_UNIT(*)
SI_UNIT(.MILLI.,.METRE.)
);
ENDSEC;
END-ISO-10303-21;
