ISO-10303-21;
HEADER;
/* Generated by software containing ST-Developer
 * from STEP Tools, Inc. (www.steptools.com) 
 */
/* OPTION: using custom schema-name function */

FILE_DESCRIPTION(
/* description */ (''),
/* implementation_level */ '2;1');

FILE_NAME(
/* name */ 'GETOUT_STAVE_125.stp',
/* time_stamp */ '2018-09-20T14:11:42+02:00',
/* author */ (''),
/* organization */ (''),
/* preprocessor_version */ 'ST-DEVELOPER v16.7',
/* originating_system */ 'SIEMENS PLM Software NX 12.0',
/* authorisation */ '');

FILE_SCHEMA (('AUTOMOTIVE_DESIGN { 1 0 10303 214 3 1 1 1 }'));
ENDSEC;

DATA;
#10=PROPERTY_DEFINITION_REPRESENTATION(#14,#12);
#11=PROPERTY_DEFINITION_REPRESENTATION(#15,#13);
#12=REPRESENTATION('',(#16),#417);
#13=REPRESENTATION('',(#17),#417);
#14=PROPERTY_DEFINITION('pmi validation property','',#21);
#15=PROPERTY_DEFINITION('pmi validation property','',#21);
#16=VALUE_REPRESENTATION_ITEM('number of annotations',COUNT_MEASURE(0.));
#17=VALUE_REPRESENTATION_ITEM('number of views',COUNT_MEASURE(0.));
#18=SHAPE_REPRESENTATION_RELATIONSHIP('None',
'relationship between bezA730AE56cd36-None and bezA730AE56cd36-None',#30,
#19);
#19=ADVANCED_BREP_SHAPE_REPRESENTATION('bezA730AE56cd36-None',(#40),#417);
#20=SHAPE_DEFINITION_REPRESENTATION(#21,#30);
#21=PRODUCT_DEFINITION_SHAPE('','',#22);
#22=PRODUCT_DEFINITION(' ','',#24,#23);
#23=PRODUCT_DEFINITION_CONTEXT('part definition',#29,'design');
#24=PRODUCT_DEFINITION_FORMATION_WITH_SPECIFIED_SOURCE(' ',' ',#26,
 .NOT_KNOWN.);
#25=PRODUCT_RELATED_PRODUCT_CATEGORY('part','',(#26));
#26=PRODUCT('bezA730AE56cd36','bezA730AE56cd36',' ',(#27));
#27=PRODUCT_CONTEXT(' ',#29,'mechanical');
#28=APPLICATION_PROTOCOL_DEFINITION('international standard',
'automotive_design',2010,#29);
#29=APPLICATION_CONTEXT(
'core data for automotive mechanical design processes');
#30=SHAPE_REPRESENTATION('bezA730AE56cd36-None',(#252),#417);
#31=PRESENTATION_LAYER_ASSIGNMENT('1','Layer 1',(#40));
#32=STYLED_ITEM('',(#33),#40);
#33=PRESENTATION_STYLE_ASSIGNMENT((#34));
#34=SURFACE_STYLE_USAGE(.BOTH.,#35);
#35=SURFACE_SIDE_STYLE('',(#36));
#36=SURFACE_STYLE_FILL_AREA(#37);
#37=FILL_AREA_STYLE('',(#38));
#38=FILL_AREA_STYLE_COLOUR('',#39);
#39=COLOUR_RGB('Medium Steel',0.596063172350652,0.666666666666667,0.686259250782025);
#40=MANIFOLD_SOLID_BREP('',#41);
#41=CLOSED_SHELL('',(#58,#59,#60,#61,#62,#63,#64,#65,#66,#67,#68,#69,#70,
#71));
#42=CONICAL_SURFACE('',#279,1.65,45.);
#43=CONICAL_SURFACE('',#280,1.65,45.);
#44=CONICAL_SURFACE('',#281,1.95,45.);
#45=CONICAL_SURFACE('',#282,1.95,45.);
#46=CYLINDRICAL_SURFACE('',#271,1.65);
#47=CYLINDRICAL_SURFACE('',#274,1.65);
#48=CYLINDRICAL_SURFACE('',#275,5.);
#49=CYLINDRICAL_SURFACE('',#276,5.);
#50=CYLINDRICAL_SURFACE('',#277,5.);
#51=CYLINDRICAL_SURFACE('',#278,5.);
#52=FACE_OUTER_BOUND('',#117,.T.);
#53=FACE_OUTER_BOUND('',#118,.T.);
#54=FACE_OUTER_BOUND('',#126,.T.);
#55=FACE_OUTER_BOUND('',#127,.T.);
#56=FACE_OUTER_BOUND('',#128,.T.);
#57=FACE_OUTER_BOUND('',#129,.T.);
#58=ADVANCED_FACE('',(#96,#97,#98),#72,.T.);
#59=ADVANCED_FACE('',(#52),#73,.T.);
#60=ADVANCED_FACE('',(#53),#74,.T.);
#61=ADVANCED_FACE('',(#99,#100,#101),#75,.T.);
#62=ADVANCED_FACE('',(#102,#103),#46,.F.);
#63=ADVANCED_FACE('',(#104,#105),#47,.F.);
#64=ADVANCED_FACE('',(#54),#48,.T.);
#65=ADVANCED_FACE('',(#55),#49,.T.);
#66=ADVANCED_FACE('',(#56),#50,.T.);
#67=ADVANCED_FACE('',(#57),#51,.T.);
#68=ADVANCED_FACE('',(#106,#107),#42,.F.);
#69=ADVANCED_FACE('',(#108,#109),#43,.F.);
#70=ADVANCED_FACE('',(#110,#111),#44,.F.);
#71=ADVANCED_FACE('',(#112,#113),#45,.F.);
#72=PLANE('',#259);
#73=PLANE('',#260);
#74=PLANE('',#261);
#75=PLANE('',#268);
#76=LINE('',#365,#86);
#77=LINE('',#371,#87);
#78=LINE('',#373,#88);
#79=LINE('',#376,#89);
#80=LINE('',#377,#90);
#81=LINE('',#379,#91);
#82=LINE('',#381,#92);
#83=LINE('',#383,#93);
#84=LINE('',#406,#94);
#85=LINE('',#409,#95);
#86=VECTOR('',#293,1.);
#87=VECTOR('',#298,1.);
#88=VECTOR('',#301,1.);
#89=VECTOR('',#302,1.);
#90=VECTOR('',#303,1.);
#91=VECTOR('',#306,1.);
#92=VECTOR('',#307,1.);
#93=VECTOR('',#308,1.);
#94=VECTOR('',#337,1.);
#95=VECTOR('',#342,1.);
#96=FACE_BOUND('',#114,.T.);
#97=FACE_BOUND('',#115,.T.);
#98=FACE_BOUND('',#116,.T.);
#99=FACE_BOUND('',#119,.T.);
#100=FACE_BOUND('',#120,.T.);
#101=FACE_BOUND('',#121,.T.);
#102=FACE_BOUND('',#122,.T.);
#103=FACE_BOUND('',#123,.T.);
#104=FACE_BOUND('',#124,.T.);
#105=FACE_BOUND('',#125,.T.);
#106=FACE_BOUND('',#130,.T.);
#107=FACE_BOUND('',#131,.T.);
#108=FACE_BOUND('',#132,.T.);
#109=FACE_BOUND('',#133,.T.);
#110=FACE_BOUND('',#134,.T.);
#111=FACE_BOUND('',#135,.T.);
#112=FACE_BOUND('',#136,.T.);
#113=FACE_BOUND('',#137,.T.);
#114=EDGE_LOOP('',(#138));
#115=EDGE_LOOP('',(#139));
#116=EDGE_LOOP('',(#140,#141,#142,#143,#144,#145));
#117=EDGE_LOOP('',(#146,#147,#148,#149));
#118=EDGE_LOOP('',(#150,#151,#152,#153));
#119=EDGE_LOOP('',(#154));
#120=EDGE_LOOP('',(#155));
#121=EDGE_LOOP('',(#156,#157,#158,#159,#160,#161));
#122=EDGE_LOOP('',(#162));
#123=EDGE_LOOP('',(#163));
#124=EDGE_LOOP('',(#164));
#125=EDGE_LOOP('',(#165));
#126=EDGE_LOOP('',(#166,#167,#168,#169));
#127=EDGE_LOOP('',(#170,#171,#172,#173));
#128=EDGE_LOOP('',(#174,#175,#176,#177));
#129=EDGE_LOOP('',(#178,#179,#180,#181));
#130=EDGE_LOOP('',(#182));
#131=EDGE_LOOP('',(#183));
#132=EDGE_LOOP('',(#184));
#133=EDGE_LOOP('',(#185));
#134=EDGE_LOOP('',(#186));
#135=EDGE_LOOP('',(#187));
#136=EDGE_LOOP('',(#188));
#137=EDGE_LOOP('',(#189));
#138=ORIENTED_EDGE('',*,*,#210,.T.);
#139=ORIENTED_EDGE('',*,*,#211,.T.);
#140=ORIENTED_EDGE('',*,*,#212,.T.);
#141=ORIENTED_EDGE('',*,*,#213,.T.);
#142=ORIENTED_EDGE('',*,*,#214,.F.);
#143=ORIENTED_EDGE('',*,*,#215,.T.);
#144=ORIENTED_EDGE('',*,*,#216,.T.);
#145=ORIENTED_EDGE('',*,*,#217,.F.);
#146=ORIENTED_EDGE('',*,*,#218,.T.);
#147=ORIENTED_EDGE('',*,*,#219,.T.);
#148=ORIENTED_EDGE('',*,*,#217,.T.);
#149=ORIENTED_EDGE('',*,*,#220,.T.);
#150=ORIENTED_EDGE('',*,*,#214,.T.);
#151=ORIENTED_EDGE('',*,*,#221,.T.);
#152=ORIENTED_EDGE('',*,*,#222,.T.);
#153=ORIENTED_EDGE('',*,*,#223,.T.);
#154=ORIENTED_EDGE('',*,*,#224,.T.);
#155=ORIENTED_EDGE('',*,*,#225,.T.);
#156=ORIENTED_EDGE('',*,*,#222,.F.);
#157=ORIENTED_EDGE('',*,*,#226,.T.);
#158=ORIENTED_EDGE('',*,*,#227,.T.);
#159=ORIENTED_EDGE('',*,*,#218,.F.);
#160=ORIENTED_EDGE('',*,*,#228,.T.);
#161=ORIENTED_EDGE('',*,*,#229,.T.);
#162=ORIENTED_EDGE('',*,*,#230,.T.);
#163=ORIENTED_EDGE('',*,*,#231,.T.);
#164=ORIENTED_EDGE('',*,*,#232,.T.);
#165=ORIENTED_EDGE('',*,*,#233,.T.);
#166=ORIENTED_EDGE('',*,*,#219,.F.);
#167=ORIENTED_EDGE('',*,*,#227,.F.);
#168=ORIENTED_EDGE('',*,*,#234,.F.);
#169=ORIENTED_EDGE('',*,*,#212,.F.);
#170=ORIENTED_EDGE('',*,*,#226,.F.);
#171=ORIENTED_EDGE('',*,*,#221,.F.);
#172=ORIENTED_EDGE('',*,*,#213,.F.);
#173=ORIENTED_EDGE('',*,*,#234,.T.);
#174=ORIENTED_EDGE('',*,*,#223,.F.);
#175=ORIENTED_EDGE('',*,*,#229,.F.);
#176=ORIENTED_EDGE('',*,*,#235,.F.);
#177=ORIENTED_EDGE('',*,*,#215,.F.);
#178=ORIENTED_EDGE('',*,*,#228,.F.);
#179=ORIENTED_EDGE('',*,*,#220,.F.);
#180=ORIENTED_EDGE('',*,*,#216,.F.);
#181=ORIENTED_EDGE('',*,*,#235,.T.);
#182=ORIENTED_EDGE('',*,*,#224,.F.);
#183=ORIENTED_EDGE('',*,*,#233,.F.);
#184=ORIENTED_EDGE('',*,*,#225,.F.);
#185=ORIENTED_EDGE('',*,*,#231,.F.);
#186=ORIENTED_EDGE('',*,*,#232,.F.);
#187=ORIENTED_EDGE('',*,*,#210,.F.);
#188=ORIENTED_EDGE('',*,*,#230,.F.);
#189=ORIENTED_EDGE('',*,*,#211,.F.);
#190=VERTEX_POINT('',#357);
#191=VERTEX_POINT('',#359);
#192=VERTEX_POINT('',#361);
#193=VERTEX_POINT('',#362);
#194=VERTEX_POINT('',#364);
#195=VERTEX_POINT('',#366);
#196=VERTEX_POINT('',#368);
#197=VERTEX_POINT('',#370);
#198=VERTEX_POINT('',#374);
#199=VERTEX_POINT('',#375);
#200=VERTEX_POINT('',#380);
#201=VERTEX_POINT('',#382);
#202=VERTEX_POINT('',#386);
#203=VERTEX_POINT('',#388);
#204=VERTEX_POINT('',#390);
#205=VERTEX_POINT('',#393);
#206=VERTEX_POINT('',#397);
#207=VERTEX_POINT('',#399);
#208=VERTEX_POINT('',#402);
#209=VERTEX_POINT('',#404);
#210=EDGE_CURVE('',#190,#190,#236,.T.);
#211=EDGE_CURVE('',#191,#191,#237,.T.);
#212=EDGE_CURVE('',#192,#193,#238,.T.);
#213=EDGE_CURVE('',#193,#194,#239,.T.);
#214=EDGE_CURVE('',#195,#194,#76,.T.);
#215=EDGE_CURVE('',#195,#196,#240,.T.);
#216=EDGE_CURVE('',#196,#197,#241,.T.);
#217=EDGE_CURVE('',#192,#197,#77,.T.);
#218=EDGE_CURVE('',#198,#199,#78,.T.);
#219=EDGE_CURVE('',#199,#192,#79,.T.);
#220=EDGE_CURVE('',#197,#198,#80,.T.);
#221=EDGE_CURVE('',#194,#200,#81,.T.);
#222=EDGE_CURVE('',#200,#201,#82,.T.);
#223=EDGE_CURVE('',#201,#195,#83,.T.);
#224=EDGE_CURVE('',#202,#202,#242,.T.);
#225=EDGE_CURVE('',#203,#203,#243,.T.);
#226=EDGE_CURVE('',#200,#204,#244,.T.);
#227=EDGE_CURVE('',#204,#199,#245,.T.);
#228=EDGE_CURVE('',#198,#205,#246,.T.);
#229=EDGE_CURVE('',#205,#201,#247,.T.);
#230=EDGE_CURVE('',#206,#206,#248,.T.);
#231=EDGE_CURVE('',#207,#207,#249,.T.);
#232=EDGE_CURVE('',#208,#208,#250,.T.);
#233=EDGE_CURVE('',#209,#209,#251,.T.);
#234=EDGE_CURVE('',#193,#204,#84,.T.);
#235=EDGE_CURVE('',#196,#205,#85,.T.);
#236=CIRCLE('',#253,1.95);
#237=CIRCLE('',#254,1.95);
#238=CIRCLE('',#255,5.);
#239=CIRCLE('',#256,5.);
#240=CIRCLE('',#257,5.);
#241=CIRCLE('',#258,5.);
#242=CIRCLE('',#262,3.15);
#243=CIRCLE('',#263,3.15);
#244=CIRCLE('',#264,5.);
#245=CIRCLE('',#265,5.);
#246=CIRCLE('',#266,5.);
#247=CIRCLE('',#267,5.);
#248=CIRCLE('',#269,1.65);
#249=CIRCLE('',#270,1.65);
#250=CIRCLE('',#272,1.65);
#251=CIRCLE('',#273,1.65);
#252=AXIS2_PLACEMENT_3D('',#355,#283,#284);
#253=AXIS2_PLACEMENT_3D('',#356,#285,#286);
#254=AXIS2_PLACEMENT_3D('',#358,#287,#288);
#255=AXIS2_PLACEMENT_3D('',#360,#289,#290);
#256=AXIS2_PLACEMENT_3D('',#363,#291,#292);
#257=AXIS2_PLACEMENT_3D('',#367,#294,#295);
#258=AXIS2_PLACEMENT_3D('',#369,#296,#297);
#259=AXIS2_PLACEMENT_3D('',#372,#299,#300);
#260=AXIS2_PLACEMENT_3D('',#378,#304,#305);
#261=AXIS2_PLACEMENT_3D('',#384,#309,#310);
#262=AXIS2_PLACEMENT_3D('',#385,#311,#312);
#263=AXIS2_PLACEMENT_3D('',#387,#313,#314);
#264=AXIS2_PLACEMENT_3D('',#389,#315,#316);
#265=AXIS2_PLACEMENT_3D('',#391,#317,#318);
#266=AXIS2_PLACEMENT_3D('',#392,#319,#320);
#267=AXIS2_PLACEMENT_3D('',#394,#321,#322);
#268=AXIS2_PLACEMENT_3D('',#395,#323,#324);
#269=AXIS2_PLACEMENT_3D('',#396,#325,#326);
#270=AXIS2_PLACEMENT_3D('',#398,#327,#328);
#271=AXIS2_PLACEMENT_3D('',#400,#329,#330);
#272=AXIS2_PLACEMENT_3D('',#401,#331,#332);
#273=AXIS2_PLACEMENT_3D('',#403,#333,#334);
#274=AXIS2_PLACEMENT_3D('',#405,#335,#336);
#275=AXIS2_PLACEMENT_3D('',#407,#338,#339);
#276=AXIS2_PLACEMENT_3D('',#408,#340,#341);
#277=AXIS2_PLACEMENT_3D('',#410,#343,#344);
#278=AXIS2_PLACEMENT_3D('',#411,#345,#346);
#279=AXIS2_PLACEMENT_3D('',#412,#347,#348);
#280=AXIS2_PLACEMENT_3D('',#413,#349,#350);
#281=AXIS2_PLACEMENT_3D('',#414,#351,#352);
#282=AXIS2_PLACEMENT_3D('',#415,#353,#354);
#283=DIRECTION('',(0.,0.,1.));
#284=DIRECTION('',(1.,0.,0.));
#285=DIRECTION('',(0.,0.,-1.));
#286=DIRECTION('',(1.,0.,0.));
#287=DIRECTION('',(0.,0.,-1.));
#288=DIRECTION('',(1.,0.,0.));
#289=DIRECTION('',(0.,0.,1.));
#290=DIRECTION('',(1.,0.,0.));
#291=DIRECTION('',(0.,0.,1.));
#292=DIRECTION('',(1.,0.,0.));
#293=DIRECTION('',(1.,0.,0.));
#294=DIRECTION('',(0.,0.,1.));
#295=DIRECTION('',(1.,0.,0.));
#296=DIRECTION('',(0.,0.,1.));
#297=DIRECTION('',(1.,0.,0.));
#298=DIRECTION('',(-1.,0.,0.));
#299=DIRECTION('',(0.,0.,1.));
#300=DIRECTION('',(1.,0.,0.));
#301=DIRECTION('',(1.,0.,0.));
#302=DIRECTION('',(0.,0.,1.));
#303=DIRECTION('',(0.,0.,-1.));
#304=DIRECTION('',(0.,-1.,0.));
#305=DIRECTION('',(0.,0.,-1.));
#306=DIRECTION('',(0.,0.,-1.));
#307=DIRECTION('',(-1.,0.,0.));
#308=DIRECTION('',(0.,0.,1.));
#309=DIRECTION('',(0.,1.,0.));
#310=DIRECTION('',(0.,0.,1.));
#311=DIRECTION('',(0.,0.,1.));
#312=DIRECTION('',(-1.,0.,0.));
#313=DIRECTION('',(0.,0.,1.));
#314=DIRECTION('',(-1.,0.,0.));
#315=DIRECTION('',(0.,0.,-1.));
#316=DIRECTION('',(-1.,0.,0.));
#317=DIRECTION('',(0.,0.,-1.));
#318=DIRECTION('',(-1.,0.,0.));
#319=DIRECTION('',(0.,0.,-1.));
#320=DIRECTION('',(-1.,0.,0.));
#321=DIRECTION('',(0.,0.,-1.));
#322=DIRECTION('',(-1.,0.,0.));
#323=DIRECTION('',(0.,0.,-1.));
#324=DIRECTION('',(-1.,0.,0.));
#325=DIRECTION('',(0.,0.,1.));
#326=DIRECTION('',(1.,0.,0.));
#327=DIRECTION('',(0.,0.,-1.));
#328=DIRECTION('',(-1.,0.,0.));
#329=DIRECTION('',(0.,0.,-1.));
#330=DIRECTION('',(-1.,0.,0.));
#331=DIRECTION('',(0.,0.,1.));
#332=DIRECTION('',(0.999999999999999,0.,0.));
#333=DIRECTION('',(0.,0.,-1.));
#334=DIRECTION('',(-0.999999999999999,0.,0.));
#335=DIRECTION('',(0.,0.,-1.));
#336=DIRECTION('',(-0.999999999999999,0.,0.));
#337=DIRECTION('',(0.,0.,-1.));
#338=DIRECTION('',(0.,0.,1.));
#339=DIRECTION('',(1.,0.,0.));
#340=DIRECTION('',(0.,0.,1.));
#341=DIRECTION('',(1.,0.,0.));
#342=DIRECTION('',(0.,0.,-1.));
#343=DIRECTION('',(0.,0.,1.));
#344=DIRECTION('',(1.,0.,0.));
#345=DIRECTION('',(0.,0.,1.));
#346=DIRECTION('',(1.,0.,0.));
#347=DIRECTION('',(0.,0.,-1.));
#348=DIRECTION('',(-1.,0.,-5.41208092889485E-17));
#349=DIRECTION('',(0.,0.,-1.));
#350=DIRECTION('',(-1.,0.,-5.41208092889485E-17));
#351=DIRECTION('',(0.,0.,1.));
#352=DIRECTION('',(1.,0.,-1.08209209290434E-16));
#353=DIRECTION('',(0.,0.,1.));
#354=DIRECTION('',(1.,0.,-1.08209209290434E-16));
#355=CARTESIAN_POINT('',(0.,0.,0.));
#356=CARTESIAN_POINT('',(31.,5.,3.));
#357=CARTESIAN_POINT('',(32.95,5.,3.));
#358=CARTESIAN_POINT('',(4.,5.,3.));
#359=CARTESIAN_POINT('',(5.95,5.,3.));
#360=CARTESIAN_POINT('',(30.,5.,3.));
#361=CARTESIAN_POINT('',(30.,0.,3.));
#362=CARTESIAN_POINT('',(35.,5.,3.));
#363=CARTESIAN_POINT('',(30.,5.,3.));
#364=CARTESIAN_POINT('',(30.,10.,3.));
#365=CARTESIAN_POINT('',(17.5,10.,3.));
#366=CARTESIAN_POINT('',(5.,10.,3.));
#367=CARTESIAN_POINT('',(5.,5.,3.));
#368=CARTESIAN_POINT('',(0.,5.,3.));
#369=CARTESIAN_POINT('',(5.,5.,3.));
#370=CARTESIAN_POINT('',(5.,0.,3.));
#371=CARTESIAN_POINT('',(17.5,0.,3.));
#372=CARTESIAN_POINT('',(17.5,5.,3.));
#373=CARTESIAN_POINT('',(17.5,0.,0.));
#374=CARTESIAN_POINT('',(5.,0.,0.));
#375=CARTESIAN_POINT('',(30.,0.,0.));
#376=CARTESIAN_POINT('',(30.,0.,0.));
#377=CARTESIAN_POINT('',(5.,0.,0.));
#378=CARTESIAN_POINT('',(17.5,0.,0.));
#379=CARTESIAN_POINT('',(30.,10.,0.));
#380=CARTESIAN_POINT('',(30.,10.,0.));
#381=CARTESIAN_POINT('',(17.5,10.,0.));
#382=CARTESIAN_POINT('',(5.,10.,0.));
#383=CARTESIAN_POINT('',(5.,10.,0.));
#384=CARTESIAN_POINT('',(17.5,10.,0.));
#385=CARTESIAN_POINT('',(31.,5.,0.));
#386=CARTESIAN_POINT('',(27.85,5.,0.));
#387=CARTESIAN_POINT('',(4.,5.,0.));
#388=CARTESIAN_POINT('',(0.85,5.,0.));
#389=CARTESIAN_POINT('',(30.,5.,0.));
#390=CARTESIAN_POINT('',(35.,5.,0.));
#391=CARTESIAN_POINT('',(30.,5.,0.));
#392=CARTESIAN_POINT('',(5.,5.,0.));
#393=CARTESIAN_POINT('',(0.,5.,0.));
#394=CARTESIAN_POINT('',(5.,5.,0.));
#395=CARTESIAN_POINT('',(17.5,5.,0.));
#396=CARTESIAN_POINT('',(4.,5.,2.7));
#397=CARTESIAN_POINT('',(5.65,5.,2.7));
#398=CARTESIAN_POINT('',(4.,5.,1.5));
#399=CARTESIAN_POINT('',(2.35,5.,1.5));
#400=CARTESIAN_POINT('',(4.,5.,3.));
#401=CARTESIAN_POINT('',(31.,5.,2.7));
#402=CARTESIAN_POINT('',(32.65,5.,2.7));
#403=CARTESIAN_POINT('',(31.,5.,1.5));
#404=CARTESIAN_POINT('',(29.35,5.,1.5));
#405=CARTESIAN_POINT('',(31.,5.,3.));
#406=CARTESIAN_POINT('',(35.,5.,0.));
#407=CARTESIAN_POINT('',(30.,5.,0.));
#408=CARTESIAN_POINT('',(30.,5.,0.));
#409=CARTESIAN_POINT('',(0.,5.,0.));
#410=CARTESIAN_POINT('',(5.,5.,0.));
#411=CARTESIAN_POINT('',(5.,5.,0.));
#412=CARTESIAN_POINT('',(31.,5.,1.5));
#413=CARTESIAN_POINT('',(4.,5.,1.5));
#414=CARTESIAN_POINT('',(31.,5.,3.));
#415=CARTESIAN_POINT('',(4.,5.,3.));
#416=MECHANICAL_DESIGN_GEOMETRIC_PRESENTATION_REPRESENTATION('',(#32),#417);
#417=(
GEOMETRIC_REPRESENTATION_CONTEXT(3)
GLOBAL_UNCERTAINTY_ASSIGNED_CONTEXT((#418))
GLOBAL_UNIT_ASSIGNED_CONTEXT((#424,#420,#419))
REPRESENTATION_CONTEXT('GETOUT_STAVE_125','TOP_LEVEL_ASSEMBLY_PART')
);
#418=UNCERTAINTY_MEASURE_WITH_UNIT(LENGTH_MEASURE(2.E-5),#424,
'DISTANCE_ACCURACY_VALUE','Maximum Tolerance applied to model');
#419=(
NAMED_UNIT(*)
SI_UNIT($,.STERADIAN.)
SOLID_ANGLE_UNIT()
);
#420=(
CONVERSION_BASED_UNIT('DEGREE',#422)
NAMED_UNIT(#421)
PLANE_ANGLE_UNIT()
);
#421=DIMENSIONAL_EXPONENTS(0.,0.,0.,0.,0.,0.,0.);
#422=PLANE_ANGLE_MEASURE_WITH_UNIT(PLANE_ANGLE_MEASURE(0.0174532925),#423);
#423=(
NAMED_UNIT(*)
PLANE_ANGLE_UNIT()
SI_UNIT($,.RADIAN.)
);
#424=(
LENGTH_UNIT()
NAMED_UNIT(*)
SI_UNIT(.MILLI.,.METRE.)
);
ENDSEC;
END-ISO-10303-21;
