ISO-10303-21;
HEADER;
/* Generated by software containing ST-Developer
 * from STEP Tools, Inc. (www.steptools.com) 
 */
/* OPTION: using custom schema-name function */

FILE_DESCRIPTION(
/* description */ (''),
/* implementation_level */ '2;1');

FILE_NAME(
/* name */ 'GETOUT_STAVE_127.stp',
/* time_stamp */ '2018-09-20T14:16:20+02:00',
/* author */ (''),
/* organization */ (''),
/* preprocessor_version */ 'ST-DEVELOPER v16.7',
/* originating_system */ 'SIEMENS PLM Software NX 12.0',
/* authorisation */ '');

FILE_SCHEMA (('AUTOMOTIVE_DESIGN { 1 0 10303 214 3 1 1 1 }'));
ENDSEC;

DATA;
#10=PROPERTY_DEFINITION_REPRESENTATION(#14,#12);
#11=PROPERTY_DEFINITION_REPRESENTATION(#15,#13);
#12=REPRESENTATION('',(#16),#207);
#13=REPRESENTATION('',(#17),#207);
#14=PROPERTY_DEFINITION('pmi validation property','',#21);
#15=PROPERTY_DEFINITION('pmi validation property','',#21);
#16=VALUE_REPRESENTATION_ITEM('number of annotations',COUNT_MEASURE(0.));
#17=VALUE_REPRESENTATION_ITEM('number of views',COUNT_MEASURE(0.));
#18=SHAPE_REPRESENTATION_RELATIONSHIP('None',
'relationship between bezA730AE56cd3v-None and bezA730AE56cd3v-None',#30,
#19);
#19=ADVANCED_BREP_SHAPE_REPRESENTATION('bezA730AE56cd3v-None',(#40),#207);
#20=SHAPE_DEFINITION_REPRESENTATION(#21,#30);
#21=PRODUCT_DEFINITION_SHAPE('','',#22);
#22=PRODUCT_DEFINITION(' ','',#24,#23);
#23=PRODUCT_DEFINITION_CONTEXT('part definition',#29,'design');
#24=PRODUCT_DEFINITION_FORMATION_WITH_SPECIFIED_SOURCE(' ',' ',#26,
 .NOT_KNOWN.);
#25=PRODUCT_RELATED_PRODUCT_CATEGORY('part','',(#26));
#26=PRODUCT('bezA730AE56cd3v','bezA730AE56cd3v',' ',(#27));
#27=PRODUCT_CONTEXT(' ',#29,'mechanical');
#28=APPLICATION_PROTOCOL_DEFINITION('international standard',
'automotive_design',2010,#29);
#29=APPLICATION_CONTEXT(
'core data for automotive mechanical design processes');
#30=SHAPE_REPRESENTATION('bezA730AE56cd3v-None',(#130),#207);
#31=PRESENTATION_LAYER_ASSIGNMENT('1','Layer 1',(#40));
#32=STYLED_ITEM('',(#33),#40);
#33=PRESENTATION_STYLE_ASSIGNMENT((#34));
#34=SURFACE_STYLE_USAGE(.BOTH.,#35);
#35=SURFACE_SIDE_STYLE('',(#36));
#36=SURFACE_STYLE_FILL_AREA(#37);
#37=FILL_AREA_STYLE('',(#38));
#38=FILL_AREA_STYLE_COLOUR('',#39);
#39=COLOUR_RGB('Medium Steel',0.596063172350652,0.666666666666667,0.686259250782025);
#40=MANIFOLD_SOLID_BREP('',#41);
#41=CLOSED_SHELL('',(#48,#49,#50,#51,#52,#53,#54,#55));
#42=CONICAL_SURFACE('',#143,3.25,45.);
#43=CONICAL_SURFACE('',#144,3.75,45.);
#44=CONICAL_SURFACE('',#145,7.,45.);
#45=CONICAL_SURFACE('',#146,7.,45.);
#46=CYLINDRICAL_SURFACE('',#139,7.);
#47=CYLINDRICAL_SURFACE('',#142,3.25);
#48=ADVANCED_FACE('',(#58,#59),#56,.T.);
#49=ADVANCED_FACE('',(#60,#61),#57,.T.);
#50=ADVANCED_FACE('',(#62,#63),#46,.T.);
#51=ADVANCED_FACE('',(#64,#65),#47,.F.);
#52=ADVANCED_FACE('',(#66,#67),#42,.F.);
#53=ADVANCED_FACE('',(#68,#69),#43,.F.);
#54=ADVANCED_FACE('',(#70,#71),#44,.T.);
#55=ADVANCED_FACE('',(#72,#73),#45,.T.);
#56=PLANE('',#133);
#57=PLANE('',#136);
#58=FACE_BOUND('',#74,.T.);
#59=FACE_BOUND('',#75,.T.);
#60=FACE_BOUND('',#76,.T.);
#61=FACE_BOUND('',#77,.T.);
#62=FACE_BOUND('',#78,.T.);
#63=FACE_BOUND('',#79,.T.);
#64=FACE_BOUND('',#80,.T.);
#65=FACE_BOUND('',#81,.T.);
#66=FACE_BOUND('',#82,.T.);
#67=FACE_BOUND('',#83,.T.);
#68=FACE_BOUND('',#84,.T.);
#69=FACE_BOUND('',#85,.T.);
#70=FACE_BOUND('',#86,.T.);
#71=FACE_BOUND('',#87,.T.);
#72=FACE_BOUND('',#88,.T.);
#73=FACE_BOUND('',#89,.T.);
#74=EDGE_LOOP('',(#90));
#75=EDGE_LOOP('',(#91));
#76=EDGE_LOOP('',(#92));
#77=EDGE_LOOP('',(#93));
#78=EDGE_LOOP('',(#94));
#79=EDGE_LOOP('',(#95));
#80=EDGE_LOOP('',(#96));
#81=EDGE_LOOP('',(#97));
#82=EDGE_LOOP('',(#98));
#83=EDGE_LOOP('',(#99));
#84=EDGE_LOOP('',(#100));
#85=EDGE_LOOP('',(#101));
#86=EDGE_LOOP('',(#102));
#87=EDGE_LOOP('',(#103));
#88=EDGE_LOOP('',(#104));
#89=EDGE_LOOP('',(#105));
#90=ORIENTED_EDGE('',*,*,#114,.T.);
#91=ORIENTED_EDGE('',*,*,#115,.T.);
#92=ORIENTED_EDGE('',*,*,#116,.T.);
#93=ORIENTED_EDGE('',*,*,#117,.T.);
#94=ORIENTED_EDGE('',*,*,#118,.T.);
#95=ORIENTED_EDGE('',*,*,#119,.T.);
#96=ORIENTED_EDGE('',*,*,#120,.T.);
#97=ORIENTED_EDGE('',*,*,#121,.T.);
#98=ORIENTED_EDGE('',*,*,#117,.F.);
#99=ORIENTED_EDGE('',*,*,#120,.F.);
#100=ORIENTED_EDGE('',*,*,#121,.F.);
#101=ORIENTED_EDGE('',*,*,#115,.F.);
#102=ORIENTED_EDGE('',*,*,#116,.F.);
#103=ORIENTED_EDGE('',*,*,#118,.F.);
#104=ORIENTED_EDGE('',*,*,#114,.F.);
#105=ORIENTED_EDGE('',*,*,#119,.F.);
#106=VERTEX_POINT('',#183);
#107=VERTEX_POINT('',#185);
#108=VERTEX_POINT('',#188);
#109=VERTEX_POINT('',#190);
#110=VERTEX_POINT('',#193);
#111=VERTEX_POINT('',#195);
#112=VERTEX_POINT('',#198);
#113=VERTEX_POINT('',#200);
#114=EDGE_CURVE('',#106,#106,#122,.T.);
#115=EDGE_CURVE('',#107,#107,#123,.T.);
#116=EDGE_CURVE('',#108,#108,#124,.T.);
#117=EDGE_CURVE('',#109,#109,#125,.T.);
#118=EDGE_CURVE('',#110,#110,#126,.T.);
#119=EDGE_CURVE('',#111,#111,#127,.T.);
#120=EDGE_CURVE('',#112,#112,#128,.T.);
#121=EDGE_CURVE('',#113,#113,#129,.T.);
#122=CIRCLE('',#131,6.5);
#123=CIRCLE('',#132,3.75);
#124=CIRCLE('',#134,6.5);
#125=CIRCLE('',#135,3.75);
#126=CIRCLE('',#137,7.);
#127=CIRCLE('',#138,7.);
#128=CIRCLE('',#140,3.25);
#129=CIRCLE('',#141,3.25);
#130=AXIS2_PLACEMENT_3D('',#181,#147,#148);
#131=AXIS2_PLACEMENT_3D('',#182,#149,#150);
#132=AXIS2_PLACEMENT_3D('',#184,#151,#152);
#133=AXIS2_PLACEMENT_3D('',#186,#153,#154);
#134=AXIS2_PLACEMENT_3D('',#187,#155,#156);
#135=AXIS2_PLACEMENT_3D('',#189,#157,#158);
#136=AXIS2_PLACEMENT_3D('',#191,#159,#160);
#137=AXIS2_PLACEMENT_3D('',#192,#161,#162);
#138=AXIS2_PLACEMENT_3D('',#194,#163,#164);
#139=AXIS2_PLACEMENT_3D('',#196,#165,#166);
#140=AXIS2_PLACEMENT_3D('',#197,#167,#168);
#141=AXIS2_PLACEMENT_3D('',#199,#169,#170);
#142=AXIS2_PLACEMENT_3D('',#201,#171,#172);
#143=AXIS2_PLACEMENT_3D('',#202,#173,#174);
#144=AXIS2_PLACEMENT_3D('',#203,#175,#176);
#145=AXIS2_PLACEMENT_3D('',#204,#177,#178);
#146=AXIS2_PLACEMENT_3D('',#205,#179,#180);
#147=DIRECTION('',(0.,0.,1.));
#148=DIRECTION('',(1.,0.,0.));
#149=DIRECTION('',(0.,0.,1.));
#150=DIRECTION('',(1.,0.,0.));
#151=DIRECTION('',(0.,0.,-1.));
#152=DIRECTION('',(1.,0.,0.));
#153=DIRECTION('',(0.,0.,1.));
#154=DIRECTION('',(1.,0.,0.));
#155=DIRECTION('',(0.,0.,-1.));
#156=DIRECTION('',(-1.,0.,0.));
#157=DIRECTION('',(0.,0.,1.));
#158=DIRECTION('',(-1.,0.,0.));
#159=DIRECTION('',(0.,0.,-1.));
#160=DIRECTION('',(-1.,0.,0.));
#161=DIRECTION('',(0.,0.,1.));
#162=DIRECTION('',(-1.,0.,0.));
#163=DIRECTION('',(0.,0.,-1.));
#164=DIRECTION('',(1.,0.,0.));
#165=DIRECTION('',(0.,0.,1.));
#166=DIRECTION('',(1.,0.,0.));
#167=DIRECTION('',(0.,0.,-1.));
#168=DIRECTION('',(-1.,0.,0.));
#169=DIRECTION('',(0.,0.,1.));
#170=DIRECTION('',(1.,0.,0.));
#171=DIRECTION('',(0.,0.,-1.));
#172=DIRECTION('',(-1.,0.,0.));
#173=DIRECTION('',(0.,0.,-1.));
#174=DIRECTION('',(-1.,0.,-5.44667724827006E-17));
#175=DIRECTION('',(0.,0.,1.));
#176=DIRECTION('',(1.,0.,-1.04558675264355E-16));
#177=DIRECTION('',(0.,0.,1.));
#178=DIRECTION('',(1.,0.,-5.4694608105525E-17));
#179=DIRECTION('',(0.,0.,-1.));
#180=DIRECTION('',(-1.,0.,-4.99572798444165E-17));
#181=CARTESIAN_POINT('',(0.,0.,0.));
#182=CARTESIAN_POINT('',(0.,0.,7.));
#183=CARTESIAN_POINT('',(6.5,0.,7.));
#184=CARTESIAN_POINT('',(0.,0.,7.));
#185=CARTESIAN_POINT('',(3.75,0.,7.));
#186=CARTESIAN_POINT('',(0.,0.,7.));
#187=CARTESIAN_POINT('',(0.,0.,0.));
#188=CARTESIAN_POINT('',(-6.5,0.,0.));
#189=CARTESIAN_POINT('',(0.,0.,0.));
#190=CARTESIAN_POINT('',(-3.75,0.,0.));
#191=CARTESIAN_POINT('',(0.,0.,0.));
#192=CARTESIAN_POINT('',(0.,0.,0.5));
#193=CARTESIAN_POINT('',(-7.,0.,0.5));
#194=CARTESIAN_POINT('',(0.,0.,6.5));
#195=CARTESIAN_POINT('',(7.,0.,6.5));
#196=CARTESIAN_POINT('',(0.,0.,0.));
#197=CARTESIAN_POINT('',(0.,0.,0.5));
#198=CARTESIAN_POINT('',(-3.25,0.,0.5));
#199=CARTESIAN_POINT('',(0.,0.,6.5));
#200=CARTESIAN_POINT('',(3.25,0.,6.5));
#201=CARTESIAN_POINT('',(0.,0.,7.));
#202=CARTESIAN_POINT('',(0.,0.,0.5));
#203=CARTESIAN_POINT('',(0.,0.,7.));
#204=CARTESIAN_POINT('',(0.,0.,0.5));
#205=CARTESIAN_POINT('',(0.,0.,6.5));
#206=MECHANICAL_DESIGN_GEOMETRIC_PRESENTATION_REPRESENTATION('',(#32),#207);
#207=(
GEOMETRIC_REPRESENTATION_CONTEXT(3)
GLOBAL_UNCERTAINTY_ASSIGNED_CONTEXT((#208))
GLOBAL_UNIT_ASSIGNED_CONTEXT((#214,#210,#209))
REPRESENTATION_CONTEXT('GETOUT_STAVE_127','TOP_LEVEL_ASSEMBLY_PART')
);
#208=UNCERTAINTY_MEASURE_WITH_UNIT(LENGTH_MEASURE(2.E-5),#214,
'DISTANCE_ACCURACY_VALUE','Maximum Tolerance applied to model');
#209=(
NAMED_UNIT(*)
SI_UNIT($,.STERADIAN.)
SOLID_ANGLE_UNIT()
);
#210=(
CONVERSION_BASED_UNIT('DEGREE',#212)
NAMED_UNIT(#211)
PLANE_ANGLE_UNIT()
);
#211=DIMENSIONAL_EXPONENTS(0.,0.,0.,0.,0.,0.,0.);
#212=PLANE_ANGLE_MEASURE_WITH_UNIT(PLANE_ANGLE_MEASURE(0.0174532925),#213);
#213=(
NAMED_UNIT(*)
PLANE_ANGLE_UNIT()
SI_UNIT($,.RADIAN.)
);
#214=(
LENGTH_UNIT()
NAMED_UNIT(*)
SI_UNIT(.MILLI.,.METRE.)
);
ENDSEC;
END-ISO-10303-21;
