ISO-10303-21;
HEADER;
/* Generated by software containing ST-Developer
 * from STEP Tools, Inc. (www.steptools.com) 
 */
/* OPTION: using custom schema-name function */

FILE_DESCRIPTION(
/* description */ (''),
/* implementation_level */ '2;1');

FILE_NAME(
/* name */ 'GETOUT_STAVE_82.stp',
/* time_stamp */ '2018-09-24T13:54:34+02:00',
/* author */ (''),
/* organization */ (''),
/* preprocessor_version */ 'ST-DEVELOPER v16.7',
/* originating_system */ 'SIEMENS PLM Software NX 12.0',
/* authorisation */ '');

FILE_SCHEMA (('AP203_CONFIGURATION_CONTROLLED_3D_DESIGN_OF_MECHANICAL_PARTS_AND_ASSEMBLIES_MIM_LF { 1 0 10303 403 2 1 2}'));
ENDSEC;

DATA;
#10=PROPERTY_DEFINITION_REPRESENTATION(#14,#12);
#11=PROPERTY_DEFINITION_REPRESENTATION(#15,#13);
#12=REPRESENTATION('',(#16),#715);
#13=REPRESENTATION('',(#17),#715);
#14=PROPERTY_DEFINITION('pmi validation property','',#89);
#15=PROPERTY_DEFINITION('pmi validation property','',#89);
#16=VALUE_REPRESENTATION_ITEM('number of annotations',COUNT_MEASURE(0.));
#17=VALUE_REPRESENTATION_ITEM('number of views',COUNT_MEASURE(0.));
#18=SHAPE_REPRESENTATION_RELATIONSHIP('None',
'relationship between turc2B94F83Ek45r-None and turc2B94F83Ek45r-None',
#100,#19);
#19=ADVANCED_BREP_SHAPE_REPRESENTATION('turc2B94F83Ek45r-None',(#110),#715);
#20=CC_DESIGN_APPROVAL(#32,(#90));
#21=CC_DESIGN_APPROVAL(#33,(#92));
#22=CC_DESIGN_APPROVAL(#34,(#39));
#23=APPROVAL_PERSON_ORGANIZATION(#77,#32,#26);
#24=APPROVAL_PERSON_ORGANIZATION(#78,#33,#27);
#25=APPROVAL_PERSON_ORGANIZATION(#79,#34,#28);
#26=APPROVAL_ROLE('approver');
#27=APPROVAL_ROLE('approver');
#28=APPROVAL_ROLE('approver');
#29=APPROVAL_DATE_TIME(#47,#32);
#30=APPROVAL_DATE_TIME(#48,#33);
#31=APPROVAL_DATE_TIME(#49,#34);
#32=APPROVAL(#35,' ');
#33=APPROVAL(#36,' ');
#34=APPROVAL(#37,' ');
#35=APPROVAL_STATUS('not_yet_approved');
#36=APPROVAL_STATUS('not_yet_approved');
#37=APPROVAL_STATUS('not_yet_approved');
#38=CC_DESIGN_SECURITY_CLASSIFICATION(#39,(#92));
#39=SECURITY_CLASSIFICATION(' ',' ',#40);
#40=SECURITY_CLASSIFICATION_LEVEL('confidential');
#41=CC_DESIGN_DATE_AND_TIME_ASSIGNMENT(#45,#43,(#90));
#42=CC_DESIGN_DATE_AND_TIME_ASSIGNMENT(#46,#44,(#39));
#43=DATE_TIME_ROLE('creation_date');
#44=DATE_TIME_ROLE('classification_date');
#45=DATE_AND_TIME(#60,#50);
#46=DATE_AND_TIME(#61,#51);
#47=DATE_AND_TIME(#62,#52);
#48=DATE_AND_TIME(#63,#53);
#49=DATE_AND_TIME(#64,#54);
#50=LOCAL_TIME(0,0,0.,#55);
#51=LOCAL_TIME(0,0,0.,#56);
#52=LOCAL_TIME(0,0,0.,#57);
#53=LOCAL_TIME(0,0,0.,#58);
#54=LOCAL_TIME(0,0,0.,#59);
#55=COORDINATED_UNIVERSAL_TIME_OFFSET(0,0,.BEHIND.);
#56=COORDINATED_UNIVERSAL_TIME_OFFSET(0,0,.BEHIND.);
#57=COORDINATED_UNIVERSAL_TIME_OFFSET(0,0,.BEHIND.);
#58=COORDINATED_UNIVERSAL_TIME_OFFSET(0,0,.BEHIND.);
#59=COORDINATED_UNIVERSAL_TIME_OFFSET(0,0,.BEHIND.);
#60=CALENDAR_DATE(0,1,1);
#61=CALENDAR_DATE(0,1,1);
#62=CALENDAR_DATE(0,1,1);
#63=CALENDAR_DATE(0,1,1);
#64=CALENDAR_DATE(0,1,1);
#65=CC_DESIGN_PERSON_AND_ORGANIZATION_ASSIGNMENT(#73,#69,(#90,#92));
#66=CC_DESIGN_PERSON_AND_ORGANIZATION_ASSIGNMENT(#74,#70,(#94));
#67=CC_DESIGN_PERSON_AND_ORGANIZATION_ASSIGNMENT(#75,#71,(#92));
#68=CC_DESIGN_PERSON_AND_ORGANIZATION_ASSIGNMENT(#76,#72,(#39));
#69=PERSON_AND_ORGANIZATION_ROLE('creator');
#70=PERSON_AND_ORGANIZATION_ROLE('design_owner');
#71=PERSON_AND_ORGANIZATION_ROLE('design_supplier');
#72=PERSON_AND_ORGANIZATION_ROLE('classification_officer');
#73=PERSON_AND_ORGANIZATION(#87,#80);
#74=PERSON_AND_ORGANIZATION(#87,#81);
#75=PERSON_AND_ORGANIZATION(#87,#82);
#76=PERSON_AND_ORGANIZATION(#87,#83);
#77=PERSON_AND_ORGANIZATION(#87,#84);
#78=PERSON_AND_ORGANIZATION(#87,#85);
#79=PERSON_AND_ORGANIZATION(#87,#86);
#80=ORGANIZATION(' ',' ',' ');
#81=ORGANIZATION(' ',' ',' ');
#82=ORGANIZATION(' ',' ',' ');
#83=ORGANIZATION(' ',' ',' ');
#84=ORGANIZATION(' ',' ',' ');
#85=ORGANIZATION(' ',' ',' ');
#86=ORGANIZATION(' ',' ',' ');
#87=PERSON(' ',' ',' ',(' '),$,$);
#88=SHAPE_DEFINITION_REPRESENTATION(#89,#100);
#89=PRODUCT_DEFINITION_SHAPE('','',#90);
#90=PRODUCT_DEFINITION(' ','',#92,#91);
#91=DESIGN_CONTEXT('',#99,'design');
#92=PRODUCT_DEFINITION_FORMATION_WITH_SPECIFIED_SOURCE(' ',' ',#94,
 .NOT_KNOWN.);
#93=PRODUCT_RELATED_PRODUCT_CATEGORY('detail','',(#94));
#94=PRODUCT('turc2B94F83Ek45r','turc2B94F83Ek45r',' ',(#97));
#95=PRODUCT_CATEGORY('part',' ');
#96=PRODUCT_CATEGORY(' ','');
#97=MECHANICAL_CONTEXT(' ',#99,'mechanical');
#98=APPLICATION_PROTOCOL_DEFINITION('international standard',
'config_control_design',2010,#99);
#99=APPLICATION_CONTEXT(
'configuration controlled 3D designs of mechanical parts and assemblie
s');
#100=SHAPE_REPRESENTATION('turc2B94F83Ek45r-None',(#466),#715);
#101=PRESENTATION_LAYER_ASSIGNMENT('1','Layer 1',(#110));
#102=STYLED_ITEM('',(#103),#110);
#103=PRESENTATION_STYLE_ASSIGNMENT((#104));
#104=SURFACE_STYLE_USAGE(.BOTH.,#105);
#105=SURFACE_SIDE_STYLE('',(#106));
#106=SURFACE_STYLE_FILL_AREA(#107);
#107=FILL_AREA_STYLE('',(#108));
#108=FILL_AREA_STYLE_COLOUR('',#109);
#109=COLOUR_RGB('Medium Steel',0.596063172350652,0.666666666666667,0.686259250782025);
#110=MANIFOLD_SOLID_BREP('',#111);
#111=CLOSED_SHELL('',(#145,#146,#147,#148,#149,#150,#151,#152,#153,#154,
#155,#156,#157,#158,#159,#160,#161,#162,#163,#164,#165,#166));
#112=FACE_OUTER_BOUND('',#222,.T.);
#113=FACE_OUTER_BOUND('',#223,.T.);
#114=FACE_OUTER_BOUND('',#224,.T.);
#115=FACE_OUTER_BOUND('',#228,.T.);
#116=FACE_OUTER_BOUND('',#232,.T.);
#117=FACE_OUTER_BOUND('',#233,.T.);
#118=FACE_OUTER_BOUND('',#236,.T.);
#119=FACE_OUTER_BOUND('',#239,.T.);
#120=FACE_OUTER_BOUND('',#242,.T.);
#121=FACE_OUTER_BOUND('',#245,.T.);
#122=CYLINDRICAL_SURFACE('',#475,2.25);
#123=CYLINDRICAL_SURFACE('',#478,2.25);
#124=CYLINDRICAL_SURFACE('',#481,2.25);
#125=CYLINDRICAL_SURFACE('',#484,2.25);
#126=CYLINDRICAL_SURFACE('',#491,16.);
#127=CYLINDRICAL_SURFACE('',#497,4.);
#128=CYLINDRICAL_SURFACE('',#500,4.);
#129=CYLINDRICAL_SURFACE('',#503,4.);
#130=CYLINDRICAL_SURFACE('',#506,4.);
#131=CIRCLE('',#473,2.25);
#132=CIRCLE('',#474,2.25);
#133=CIRCLE('',#476,2.25);
#134=CIRCLE('',#477,2.25);
#135=CIRCLE('',#479,2.25);
#136=CIRCLE('',#480,2.25);
#137=CIRCLE('',#482,2.25);
#138=CIRCLE('',#483,2.25);
#139=CIRCLE('',#489,16.);
#140=CIRCLE('',#490,16.);
#141=CIRCLE('',#495,4.);
#142=CIRCLE('',#498,4.);
#143=CIRCLE('',#501,4.);
#144=CIRCLE('',#504,4.);
#145=ADVANCED_FACE('',(#180,#181,#182),#167,.F.);
#146=ADVANCED_FACE('',(#183,#184,#185),#168,.F.);
#147=ADVANCED_FACE('',(#186,#187),#122,.F.);
#148=ADVANCED_FACE('',(#188,#189),#123,.F.);
#149=ADVANCED_FACE('',(#190,#191),#124,.F.);
#150=ADVANCED_FACE('',(#192,#193),#125,.F.);
#151=ADVANCED_FACE('',(#112),#169,.F.);
#152=ADVANCED_FACE('',(#113),#170,.F.);
#153=ADVANCED_FACE('',(#114),#171,.F.);
#154=ADVANCED_FACE('',(#194,#195,#196),#172,.F.);
#155=ADVANCED_FACE('',(#115),#126,.F.);
#156=ADVANCED_FACE('',(#197,#198,#199),#173,.F.);
#157=ADVANCED_FACE('',(#116),#174,.F.);
#158=ADVANCED_FACE('',(#117),#175,.T.);
#159=ADVANCED_FACE('',(#200,#201),#176,.T.);
#160=ADVANCED_FACE('',(#118),#127,.F.);
#161=ADVANCED_FACE('',(#202,#203),#177,.T.);
#162=ADVANCED_FACE('',(#119),#128,.F.);
#163=ADVANCED_FACE('',(#204,#205),#178,.T.);
#164=ADVANCED_FACE('',(#120),#129,.F.);
#165=ADVANCED_FACE('',(#206,#207),#179,.T.);
#166=ADVANCED_FACE('',(#121),#130,.F.);
#167=PLANE('',#469);
#168=PLANE('',#472);
#169=PLANE('',#485);
#170=PLANE('',#486);
#171=PLANE('',#487);
#172=PLANE('',#488);
#173=PLANE('',#492);
#174=PLANE('',#493);
#175=PLANE('',#494);
#176=PLANE('',#496);
#177=PLANE('',#499);
#178=PLANE('',#502);
#179=PLANE('',#505);
#180=FACE_BOUND('',#208,.T.);
#181=FACE_BOUND('',#209,.T.);
#182=FACE_BOUND('',#210,.T.);
#183=FACE_BOUND('',#211,.T.);
#184=FACE_BOUND('',#212,.T.);
#185=FACE_BOUND('',#213,.T.);
#186=FACE_BOUND('',#214,.T.);
#187=FACE_BOUND('',#215,.T.);
#188=FACE_BOUND('',#216,.T.);
#189=FACE_BOUND('',#217,.T.);
#190=FACE_BOUND('',#218,.T.);
#191=FACE_BOUND('',#219,.T.);
#192=FACE_BOUND('',#220,.T.);
#193=FACE_BOUND('',#221,.T.);
#194=FACE_BOUND('',#225,.T.);
#195=FACE_BOUND('',#226,.T.);
#196=FACE_BOUND('',#227,.T.);
#197=FACE_BOUND('',#229,.T.);
#198=FACE_BOUND('',#230,.T.);
#199=FACE_BOUND('',#231,.T.);
#200=FACE_BOUND('',#234,.T.);
#201=FACE_BOUND('',#235,.T.);
#202=FACE_BOUND('',#237,.T.);
#203=FACE_BOUND('',#238,.T.);
#204=FACE_BOUND('',#240,.T.);
#205=FACE_BOUND('',#241,.T.);
#206=FACE_BOUND('',#243,.T.);
#207=FACE_BOUND('',#244,.T.);
#208=EDGE_LOOP('',(#250,#251));
#209=EDGE_LOOP('',(#252,#253,#254,#255));
#210=EDGE_LOOP('',(#256,#257));
#211=EDGE_LOOP('',(#258,#259));
#212=EDGE_LOOP('',(#260,#261,#262,#263));
#213=EDGE_LOOP('',(#264,#265));
#214=EDGE_LOOP('',(#266));
#215=EDGE_LOOP('',(#267));
#216=EDGE_LOOP('',(#268));
#217=EDGE_LOOP('',(#269));
#218=EDGE_LOOP('',(#270));
#219=EDGE_LOOP('',(#271));
#220=EDGE_LOOP('',(#272));
#221=EDGE_LOOP('',(#273));
#222=EDGE_LOOP('',(#274,#275,#276,#277));
#223=EDGE_LOOP('',(#278,#279,#280,#281));
#224=EDGE_LOOP('',(#282,#283,#284,#285));
#225=EDGE_LOOP('',(#286));
#226=EDGE_LOOP('',(#287));
#227=EDGE_LOOP('',(#288,#289,#290,#291));
#228=EDGE_LOOP('',(#292,#293,#294,#295));
#229=EDGE_LOOP('',(#296));
#230=EDGE_LOOP('',(#297));
#231=EDGE_LOOP('',(#298,#299,#300,#301));
#232=EDGE_LOOP('',(#302,#303,#304,#305,#306,#307,#308,#309));
#233=EDGE_LOOP('',(#310,#311,#312,#313,#314,#315,#316,#317));
#234=EDGE_LOOP('',(#318,#319));
#235=EDGE_LOOP('',(#320));
#236=EDGE_LOOP('',(#321,#322));
#237=EDGE_LOOP('',(#323,#324));
#238=EDGE_LOOP('',(#325));
#239=EDGE_LOOP('',(#326,#327));
#240=EDGE_LOOP('',(#328,#329));
#241=EDGE_LOOP('',(#330));
#242=EDGE_LOOP('',(#331,#332));
#243=EDGE_LOOP('',(#333,#334));
#244=EDGE_LOOP('',(#335));
#245=EDGE_LOOP('',(#336,#337));
#246=ELLIPSE('',#467,5.65685424949238,4.);
#247=ELLIPSE('',#468,5.65685424949238,4.);
#248=ELLIPSE('',#470,5.65685424949238,4.);
#249=ELLIPSE('',#471,5.65685424949238,4.);
#250=ORIENTED_EDGE('',*,*,#370,.T.);
#251=ORIENTED_EDGE('',*,*,#371,.T.);
#252=ORIENTED_EDGE('',*,*,#372,.F.);
#253=ORIENTED_EDGE('',*,*,#373,.F.);
#254=ORIENTED_EDGE('',*,*,#374,.F.);
#255=ORIENTED_EDGE('',*,*,#375,.F.);
#256=ORIENTED_EDGE('',*,*,#376,.T.);
#257=ORIENTED_EDGE('',*,*,#377,.T.);
#258=ORIENTED_EDGE('',*,*,#378,.T.);
#259=ORIENTED_EDGE('',*,*,#379,.T.);
#260=ORIENTED_EDGE('',*,*,#380,.F.);
#261=ORIENTED_EDGE('',*,*,#381,.F.);
#262=ORIENTED_EDGE('',*,*,#382,.F.);
#263=ORIENTED_EDGE('',*,*,#383,.F.);
#264=ORIENTED_EDGE('',*,*,#384,.T.);
#265=ORIENTED_EDGE('',*,*,#385,.T.);
#266=ORIENTED_EDGE('',*,*,#386,.F.);
#267=ORIENTED_EDGE('',*,*,#387,.F.);
#268=ORIENTED_EDGE('',*,*,#388,.F.);
#269=ORIENTED_EDGE('',*,*,#389,.F.);
#270=ORIENTED_EDGE('',*,*,#390,.F.);
#271=ORIENTED_EDGE('',*,*,#391,.F.);
#272=ORIENTED_EDGE('',*,*,#392,.F.);
#273=ORIENTED_EDGE('',*,*,#393,.F.);
#274=ORIENTED_EDGE('',*,*,#394,.T.);
#275=ORIENTED_EDGE('',*,*,#381,.T.);
#276=ORIENTED_EDGE('',*,*,#395,.F.);
#277=ORIENTED_EDGE('',*,*,#396,.T.);
#278=ORIENTED_EDGE('',*,*,#397,.T.);
#279=ORIENTED_EDGE('',*,*,#373,.T.);
#280=ORIENTED_EDGE('',*,*,#398,.F.);
#281=ORIENTED_EDGE('',*,*,#383,.T.);
#282=ORIENTED_EDGE('',*,*,#399,.F.);
#283=ORIENTED_EDGE('',*,*,#375,.T.);
#284=ORIENTED_EDGE('',*,*,#400,.T.);
#285=ORIENTED_EDGE('',*,*,#401,.F.);
#286=ORIENTED_EDGE('',*,*,#390,.T.);
#287=ORIENTED_EDGE('',*,*,#386,.T.);
#288=ORIENTED_EDGE('',*,*,#402,.T.);
#289=ORIENTED_EDGE('',*,*,#403,.F.);
#290=ORIENTED_EDGE('',*,*,#404,.F.);
#291=ORIENTED_EDGE('',*,*,#401,.T.);
#292=ORIENTED_EDGE('',*,*,#405,.T.);
#293=ORIENTED_EDGE('',*,*,#406,.F.);
#294=ORIENTED_EDGE('',*,*,#407,.F.);
#295=ORIENTED_EDGE('',*,*,#403,.T.);
#296=ORIENTED_EDGE('',*,*,#392,.T.);
#297=ORIENTED_EDGE('',*,*,#388,.T.);
#298=ORIENTED_EDGE('',*,*,#408,.T.);
#299=ORIENTED_EDGE('',*,*,#396,.F.);
#300=ORIENTED_EDGE('',*,*,#409,.F.);
#301=ORIENTED_EDGE('',*,*,#406,.T.);
#302=ORIENTED_EDGE('',*,*,#398,.T.);
#303=ORIENTED_EDGE('',*,*,#372,.T.);
#304=ORIENTED_EDGE('',*,*,#399,.T.);
#305=ORIENTED_EDGE('',*,*,#404,.T.);
#306=ORIENTED_EDGE('',*,*,#407,.T.);
#307=ORIENTED_EDGE('',*,*,#409,.T.);
#308=ORIENTED_EDGE('',*,*,#395,.T.);
#309=ORIENTED_EDGE('',*,*,#380,.T.);
#310=ORIENTED_EDGE('',*,*,#400,.F.);
#311=ORIENTED_EDGE('',*,*,#374,.T.);
#312=ORIENTED_EDGE('',*,*,#397,.F.);
#313=ORIENTED_EDGE('',*,*,#382,.T.);
#314=ORIENTED_EDGE('',*,*,#394,.F.);
#315=ORIENTED_EDGE('',*,*,#408,.F.);
#316=ORIENTED_EDGE('',*,*,#405,.F.);
#317=ORIENTED_EDGE('',*,*,#402,.F.);
#318=ORIENTED_EDGE('',*,*,#410,.F.);
#319=ORIENTED_EDGE('',*,*,#384,.F.);
#320=ORIENTED_EDGE('',*,*,#393,.T.);
#321=ORIENTED_EDGE('',*,*,#410,.T.);
#322=ORIENTED_EDGE('',*,*,#385,.F.);
#323=ORIENTED_EDGE('',*,*,#411,.F.);
#324=ORIENTED_EDGE('',*,*,#370,.F.);
#325=ORIENTED_EDGE('',*,*,#391,.T.);
#326=ORIENTED_EDGE('',*,*,#411,.T.);
#327=ORIENTED_EDGE('',*,*,#371,.F.);
#328=ORIENTED_EDGE('',*,*,#412,.F.);
#329=ORIENTED_EDGE('',*,*,#378,.F.);
#330=ORIENTED_EDGE('',*,*,#389,.T.);
#331=ORIENTED_EDGE('',*,*,#412,.T.);
#332=ORIENTED_EDGE('',*,*,#379,.F.);
#333=ORIENTED_EDGE('',*,*,#413,.F.);
#334=ORIENTED_EDGE('',*,*,#376,.F.);
#335=ORIENTED_EDGE('',*,*,#387,.T.);
#336=ORIENTED_EDGE('',*,*,#413,.T.);
#337=ORIENTED_EDGE('',*,*,#377,.F.);
#338=VERTEX_POINT('',#617);
#339=VERTEX_POINT('',#618);
#340=VERTEX_POINT('',#621);
#341=VERTEX_POINT('',#622);
#342=VERTEX_POINT('',#624);
#343=VERTEX_POINT('',#626);
#344=VERTEX_POINT('',#629);
#345=VERTEX_POINT('',#630);
#346=VERTEX_POINT('',#634);
#347=VERTEX_POINT('',#635);
#348=VERTEX_POINT('',#638);
#349=VERTEX_POINT('',#639);
#350=VERTEX_POINT('',#641);
#351=VERTEX_POINT('',#643);
#352=VERTEX_POINT('',#646);
#353=VERTEX_POINT('',#647);
#354=VERTEX_POINT('',#651);
#355=VERTEX_POINT('',#653);
#356=VERTEX_POINT('',#656);
#357=VERTEX_POINT('',#658);
#358=VERTEX_POINT('',#661);
#359=VERTEX_POINT('',#663);
#360=VERTEX_POINT('',#666);
#361=VERTEX_POINT('',#668);
#362=VERTEX_POINT('',#671);
#363=VERTEX_POINT('',#673);
#364=VERTEX_POINT('',#680);
#365=VERTEX_POINT('',#682);
#366=VERTEX_POINT('',#686);
#367=VERTEX_POINT('',#688);
#368=VERTEX_POINT('',#692);
#369=VERTEX_POINT('',#694);
#370=EDGE_CURVE('',#338,#339,#414,.T.);
#371=EDGE_CURVE('',#339,#338,#246,.T.);
#372=EDGE_CURVE('',#340,#341,#415,.T.);
#373=EDGE_CURVE('',#342,#340,#416,.T.);
#374=EDGE_CURVE('',#343,#342,#417,.T.);
#375=EDGE_CURVE('',#341,#343,#418,.T.);
#376=EDGE_CURVE('',#344,#345,#419,.T.);
#377=EDGE_CURVE('',#345,#344,#247,.T.);
#378=EDGE_CURVE('',#346,#347,#420,.T.);
#379=EDGE_CURVE('',#347,#346,#248,.T.);
#380=EDGE_CURVE('',#348,#349,#421,.T.);
#381=EDGE_CURVE('',#350,#348,#422,.T.);
#382=EDGE_CURVE('',#351,#350,#423,.T.);
#383=EDGE_CURVE('',#349,#351,#424,.T.);
#384=EDGE_CURVE('',#352,#353,#425,.T.);
#385=EDGE_CURVE('',#353,#352,#249,.T.);
#386=EDGE_CURVE('',#354,#354,#131,.T.);
#387=EDGE_CURVE('',#355,#355,#132,.T.);
#388=EDGE_CURVE('',#356,#356,#133,.T.);
#389=EDGE_CURVE('',#357,#357,#134,.T.);
#390=EDGE_CURVE('',#358,#358,#135,.T.);
#391=EDGE_CURVE('',#359,#359,#136,.T.);
#392=EDGE_CURVE('',#360,#360,#137,.T.);
#393=EDGE_CURVE('',#361,#361,#138,.T.);
#394=EDGE_CURVE('',#362,#350,#426,.T.);
#395=EDGE_CURVE('',#363,#348,#427,.T.);
#396=EDGE_CURVE('',#363,#362,#428,.T.);
#397=EDGE_CURVE('',#351,#342,#429,.T.);
#398=EDGE_CURVE('',#349,#340,#430,.T.);
#399=EDGE_CURVE('',#341,#364,#431,.T.);
#400=EDGE_CURVE('',#343,#365,#432,.T.);
#401=EDGE_CURVE('',#364,#365,#433,.T.);
#402=EDGE_CURVE('',#365,#366,#434,.T.);
#403=EDGE_CURVE('',#367,#366,#435,.T.);
#404=EDGE_CURVE('',#364,#367,#436,.T.);
#405=EDGE_CURVE('',#366,#368,#139,.T.);
#406=EDGE_CURVE('',#369,#368,#437,.T.);
#407=EDGE_CURVE('',#367,#369,#140,.T.);
#408=EDGE_CURVE('',#368,#362,#438,.T.);
#409=EDGE_CURVE('',#369,#363,#439,.T.);
#410=EDGE_CURVE('',#353,#352,#141,.T.);
#411=EDGE_CURVE('',#339,#338,#142,.T.);
#412=EDGE_CURVE('',#347,#346,#143,.T.);
#413=EDGE_CURVE('',#345,#344,#144,.T.);
#414=LINE('',#616,#440);
#415=LINE('',#620,#441);
#416=LINE('',#623,#442);
#417=LINE('',#625,#443);
#418=LINE('',#627,#444);
#419=LINE('',#628,#445);
#420=LINE('',#633,#446);
#421=LINE('',#637,#447);
#422=LINE('',#640,#448);
#423=LINE('',#642,#449);
#424=LINE('',#644,#450);
#425=LINE('',#645,#451);
#426=LINE('',#670,#452);
#427=LINE('',#672,#453);
#428=LINE('',#674,#454);
#429=LINE('',#676,#455);
#430=LINE('',#677,#456);
#431=LINE('',#679,#457);
#432=LINE('',#681,#458);
#433=LINE('',#683,#459);
#434=LINE('',#685,#460);
#435=LINE('',#687,#461);
#436=LINE('',#689,#462);
#437=LINE('',#693,#463);
#438=LINE('',#697,#464);
#439=LINE('',#698,#465);
#440=VECTOR('',#509,1.);
#441=VECTOR('',#512,1.);
#442=VECTOR('',#513,1.);
#443=VECTOR('',#514,1.);
#444=VECTOR('',#515,1.);
#445=VECTOR('',#516,1.);
#446=VECTOR('',#521,1.);
#447=VECTOR('',#524,1.);
#448=VECTOR('',#525,1.);
#449=VECTOR('',#526,1.);
#450=VECTOR('',#527,1.);
#451=VECTOR('',#528,1.);
#452=VECTOR('',#557,1.);
#453=VECTOR('',#558,1.);
#454=VECTOR('',#559,1.);
#455=VECTOR('',#562,1.);
#456=VECTOR('',#563,1.);
#457=VECTOR('',#566,1.);
#458=VECTOR('',#567,1.);
#459=VECTOR('',#568,1.);
#460=VECTOR('',#571,1.);
#461=VECTOR('',#572,1.);
#462=VECTOR('',#573,1.);
#463=VECTOR('',#578,1.);
#464=VECTOR('',#583,1.);
#465=VECTOR('',#584,1.);
#466=AXIS2_PLACEMENT_3D('',#615,#507,#508);
#467=AXIS2_PLACEMENT_3D('',#619,#510,#511);
#468=AXIS2_PLACEMENT_3D('',#631,#517,#518);
#469=AXIS2_PLACEMENT_3D('',#632,#519,#520);
#470=AXIS2_PLACEMENT_3D('',#636,#522,#523);
#471=AXIS2_PLACEMENT_3D('',#648,#529,#530);
#472=AXIS2_PLACEMENT_3D('',#649,#531,#532);
#473=AXIS2_PLACEMENT_3D('',#650,#533,#534);
#474=AXIS2_PLACEMENT_3D('',#652,#535,#536);
#475=AXIS2_PLACEMENT_3D('',#654,#537,#538);
#476=AXIS2_PLACEMENT_3D('',#655,#539,#540);
#477=AXIS2_PLACEMENT_3D('',#657,#541,#542);
#478=AXIS2_PLACEMENT_3D('',#659,#543,#544);
#479=AXIS2_PLACEMENT_3D('',#660,#545,#546);
#480=AXIS2_PLACEMENT_3D('',#662,#547,#548);
#481=AXIS2_PLACEMENT_3D('',#664,#549,#550);
#482=AXIS2_PLACEMENT_3D('',#665,#551,#552);
#483=AXIS2_PLACEMENT_3D('',#667,#553,#554);
#484=AXIS2_PLACEMENT_3D('',#669,#555,#556);
#485=AXIS2_PLACEMENT_3D('',#675,#560,#561);
#486=AXIS2_PLACEMENT_3D('',#678,#564,#565);
#487=AXIS2_PLACEMENT_3D('',#684,#569,#570);
#488=AXIS2_PLACEMENT_3D('',#690,#574,#575);
#489=AXIS2_PLACEMENT_3D('',#691,#576,#577);
#490=AXIS2_PLACEMENT_3D('',#695,#579,#580);
#491=AXIS2_PLACEMENT_3D('',#696,#581,#582);
#492=AXIS2_PLACEMENT_3D('',#699,#585,#586);
#493=AXIS2_PLACEMENT_3D('',#700,#587,#588);
#494=AXIS2_PLACEMENT_3D('',#701,#589,#590);
#495=AXIS2_PLACEMENT_3D('',#702,#591,#592);
#496=AXIS2_PLACEMENT_3D('',#703,#593,#594);
#497=AXIS2_PLACEMENT_3D('',#704,#595,#596);
#498=AXIS2_PLACEMENT_3D('',#705,#597,#598);
#499=AXIS2_PLACEMENT_3D('',#706,#599,#600);
#500=AXIS2_PLACEMENT_3D('',#707,#601,#602);
#501=AXIS2_PLACEMENT_3D('',#708,#603,#604);
#502=AXIS2_PLACEMENT_3D('',#709,#605,#606);
#503=AXIS2_PLACEMENT_3D('',#710,#607,#608);
#504=AXIS2_PLACEMENT_3D('',#711,#609,#610);
#505=AXIS2_PLACEMENT_3D('',#712,#611,#612);
#506=AXIS2_PLACEMENT_3D('',#713,#613,#614);
#507=DIRECTION('',(0.,0.,1.));
#508=DIRECTION('',(1.,0.,0.));
#509=DIRECTION('',(-1.,0.,0.));
#510=DIRECTION('',(0.,0.707106781186548,0.707106781186548));
#511=DIRECTION('',(6.11646695426156E-48,0.707106781186548,-0.707106781186548));
#512=DIRECTION('',(0.,0.707106781186548,-0.707106781186548));
#513=DIRECTION('',(1.,0.,0.));
#514=DIRECTION('',(0.,-0.707106781186548,0.707106781186548));
#515=DIRECTION('',(-1.,0.,0.));
#516=DIRECTION('',(-1.,0.,0.));
#517=DIRECTION('',(0.,0.707106781186548,0.707106781186548));
#518=DIRECTION('',(6.11646695426156E-48,0.707106781186548,-0.707106781186548));
#519=DIRECTION('',(0.,0.707106781186547,0.707106781186547));
#520=DIRECTION('',(-1.,0.,0.));
#521=DIRECTION('',(1.,0.,0.));
#522=DIRECTION('',(0.,0.707106781186548,-0.707106781186548));
#523=DIRECTION('',(6.11646695426156E-48,0.707106781186548,0.707106781186548));
#524=DIRECTION('',(0.,-0.707106781186548,-0.707106781186548));
#525=DIRECTION('',(1.,0.,0.));
#526=DIRECTION('',(0.,0.707106781186548,0.707106781186548));
#527=DIRECTION('',(-1.,0.,0.));
#528=DIRECTION('',(1.,0.,0.));
#529=DIRECTION('',(0.,0.707106781186548,-0.707106781186548));
#530=DIRECTION('',(6.11646695426156E-48,0.707106781186548,0.707106781186548));
#531=DIRECTION('',(0.,0.707106781186547,-0.707106781186547));
#532=DIRECTION('',(-1.,0.,0.));
#533=DIRECTION('',(0.,-1.,7.01986593873906E-16));
#534=DIRECTION('',(0.,-6.74614685102092E-16,-0.999999999999999));
#535=DIRECTION('',(0.,1.,1.92747052886312E-16));
#536=DIRECTION('',(0.,0.,-1.));
#537=DIRECTION('',(0.,-1.,7.01986593873906E-16));
#538=DIRECTION('',(0.,-6.74614685102092E-16,-0.999999999999999));
#539=DIRECTION('',(0.,-1.,-1.61996906278594E-16));
#540=DIRECTION('',(0.,1.92747052886312E-16,-0.999999999999999));
#541=DIRECTION('',(0.,1.,1.92747052886312E-16));
#542=DIRECTION('',(0.,0.,-0.999999999999999));
#543=DIRECTION('',(0.,-1.,-1.61996906278594E-16));
#544=DIRECTION('',(0.,1.92747052886312E-16,-0.999999999999999));
#545=DIRECTION('',(0.,-1.,7.01986593873906E-16));
#546=DIRECTION('',(0.,-6.74614685102092E-16,-0.999999999999999));
#547=DIRECTION('',(0.,1.,1.92747052886312E-16));
#548=DIRECTION('',(0.,0.,-1.));
#549=DIRECTION('',(0.,-1.,7.01986593873906E-16));
#550=DIRECTION('',(0.,-6.74614685102092E-16,-0.999999999999999));
#551=DIRECTION('',(0.,-1.,-1.61996906278594E-16));
#552=DIRECTION('',(0.,1.92747052886312E-16,-0.999999999999999));
#553=DIRECTION('',(0.,1.,1.92747052886312E-16));
#554=DIRECTION('',(0.,0.,-0.999999999999999));
#555=DIRECTION('',(0.,-1.,-1.61996906278594E-16));
#556=DIRECTION('',(0.,1.92747052886312E-16,-0.999999999999999));
#557=DIRECTION('',(0.,-1.,0.));
#558=DIRECTION('',(0.,-1.,0.));
#559=DIRECTION('',(-1.,0.,0.));
#560=DIRECTION('',(0.,0.,-1.));
#561=DIRECTION('',(-1.,0.,0.));
#562=DIRECTION('',(0.,0.,-1.));
#563=DIRECTION('',(0.,0.,-1.));
#564=DIRECTION('',(0.,1.,0.));
#565=DIRECTION('',(0.,0.,1.));
#566=DIRECTION('',(0.,1.,0.));
#567=DIRECTION('',(0.,1.,0.));
#568=DIRECTION('',(-1.,0.,0.));
#569=DIRECTION('',(0.,0.,1.));
#570=DIRECTION('',(1.,0.,0.));
#571=DIRECTION('',(0.,7.01986593873906E-16,1.));
#572=DIRECTION('',(-1.,0.,0.));
#573=DIRECTION('',(0.,7.01986593873906E-16,1.));
#574=DIRECTION('',(0.,-1.,7.01986593873906E-16));
#575=DIRECTION('',(0.,-7.01912486467116E-16,-1.));
#576=DIRECTION('',(-1.,0.,0.));
#577=DIRECTION('',(0.,1.,6.12323399573677E-17));
#578=DIRECTION('',(-1.,0.,0.));
#579=DIRECTION('',(-1.,0.,0.));
#580=DIRECTION('',(0.,1.,6.12323399573677E-17));
#581=DIRECTION('',(-1.,0.,0.));
#582=DIRECTION('',(0.,0.,1.));
#583=DIRECTION('',(0.,-1.61996906278594E-16,1.));
#584=DIRECTION('',(0.,-1.61996906278594E-16,1.));
#585=DIRECTION('',(0.,-1.,-1.61996906278594E-16));
#586=DIRECTION('',(0.,1.61979804569334E-16,-1.));
#587=DIRECTION('',(-1.,0.,0.));
#588=DIRECTION('',(0.,0.,1.));
#589=DIRECTION('',(-1.,0.,0.));
#590=DIRECTION('',(0.,0.,1.));
#591=DIRECTION('',(0.,1.,1.92747052886312E-16));
#592=DIRECTION('',(0.,0.,-1.));
#593=DIRECTION('',(0.,-1.,-1.92747052886312E-16));
#594=DIRECTION('',(0.,1.92554305833426E-16,-1.));
#595=DIRECTION('',(4.32499526026178E-48,1.,1.92747052886312E-16));
#596=DIRECTION('',(0.,0.,1.));
#597=DIRECTION('',(0.,1.,1.92747052886312E-16));
#598=DIRECTION('',(0.,0.,-1.));
#599=DIRECTION('',(0.,-1.,-1.92747052886312E-16));
#600=DIRECTION('',(0.,1.92554305833426E-16,-1.));
#601=DIRECTION('',(4.32499526026178E-48,1.,1.92747052886312E-16));
#602=DIRECTION('',(0.,0.,1.));
#603=DIRECTION('',(0.,1.,1.92747052886312E-16));
#604=DIRECTION('',(0.,0.,-1.));
#605=DIRECTION('',(0.,-1.,-1.92747052886312E-16));
#606=DIRECTION('',(0.,1.92554305833426E-16,-1.));
#607=DIRECTION('',(4.32499526026178E-48,1.,1.92747052886312E-16));
#608=DIRECTION('',(0.,0.,1.));
#609=DIRECTION('',(0.,1.,1.92747052886312E-16));
#610=DIRECTION('',(0.,0.,-1.));
#611=DIRECTION('',(0.,-1.,-1.92747052886312E-16));
#612=DIRECTION('',(0.,1.92554305833426E-16,-1.));
#613=DIRECTION('',(4.32499526026178E-48,1.,1.92747052886312E-16));
#614=DIRECTION('',(0.,0.,1.));
#615=CARTESIAN_POINT('',(0.,0.,0.));
#616=CARTESIAN_POINT('',(17.5,-7.99999999999998,-22.));
#617=CARTESIAN_POINT('',(13.8957513110646,-7.99999999999998,-22.));
#618=CARTESIAN_POINT('',(8.60424868893544,-7.99999999999998,-22.));
#619=CARTESIAN_POINT('',(11.25,-11.,-19.));
#620=CARTESIAN_POINT('',(17.5,-6.00000000000001,-24.));
#621=CARTESIAN_POINT('',(17.5,-21.,-9.));
#622=CARTESIAN_POINT('',(17.5,-6.00000000000001,-24.));
#623=CARTESIAN_POINT('',(17.5,-21.,-9.));
#624=CARTESIAN_POINT('',(-17.5,-21.,-9.));
#625=CARTESIAN_POINT('',(-17.5,-15.,-15.));
#626=CARTESIAN_POINT('',(-17.5,-6.00000000000001,-24.));
#627=CARTESIAN_POINT('',(17.5,-6.00000000000001,-24.));
#628=CARTESIAN_POINT('',(17.5,-7.99999999999998,-22.));
#629=CARTESIAN_POINT('',(-8.60424868893544,-7.99999999999998,-22.));
#630=CARTESIAN_POINT('',(-13.8957513110646,-7.99999999999998,-22.));
#631=CARTESIAN_POINT('',(-11.25,-11.,-19.));
#632=CARTESIAN_POINT('',(17.5,-6.00000000000001,-24.));
#633=CARTESIAN_POINT('',(17.5,-8.,22.));
#634=CARTESIAN_POINT('',(-13.8957513110646,-8.,22.));
#635=CARTESIAN_POINT('',(-8.60424868893541,-8.,22.));
#636=CARTESIAN_POINT('',(-11.25,-11.,19.));
#637=CARTESIAN_POINT('',(17.5,-21.,9.));
#638=CARTESIAN_POINT('',(17.5,-6.,24.));
#639=CARTESIAN_POINT('',(17.5,-21.,9.));
#640=CARTESIAN_POINT('',(17.5,-6.,24.));
#641=CARTESIAN_POINT('',(-17.5,-6.,24.));
#642=CARTESIAN_POINT('',(-17.5,-15.,15.));
#643=CARTESIAN_POINT('',(-17.5,-21.,9.));
#644=CARTESIAN_POINT('',(17.5,-21.,9.));
#645=CARTESIAN_POINT('',(17.5,-8.,22.));
#646=CARTESIAN_POINT('',(8.60424868893541,-8.,22.));
#647=CARTESIAN_POINT('',(13.8957513110646,-8.,22.));
#648=CARTESIAN_POINT('',(11.25,-11.,19.));
#649=CARTESIAN_POINT('',(17.5,-21.,9.));
#650=CARTESIAN_POINT('',(-11.25,-0.999999999999998,-19.));
#651=CARTESIAN_POINT('',(-11.25,-1.,-21.25));
#652=CARTESIAN_POINT('',(-11.25,-7.99999999999998,-19.));
#653=CARTESIAN_POINT('',(-11.25,-7.99999999999998,-21.25));
#654=CARTESIAN_POINT('',(-11.25,-0.999999999999998,-19.));
#655=CARTESIAN_POINT('',(-11.25,-0.999999999999998,19.));
#656=CARTESIAN_POINT('',(-11.25,-0.999999999999998,16.75));
#657=CARTESIAN_POINT('',(-11.25,-8.,19.));
#658=CARTESIAN_POINT('',(-11.25,-8.,16.75));
#659=CARTESIAN_POINT('',(-11.25,-0.999999999999998,19.));
#660=CARTESIAN_POINT('',(11.25,-0.999999999999998,-19.));
#661=CARTESIAN_POINT('',(11.25,-1.,-21.25));
#662=CARTESIAN_POINT('',(11.25,-7.99999999999998,-19.));
#663=CARTESIAN_POINT('',(11.25,-7.99999999999998,-21.25));
#664=CARTESIAN_POINT('',(11.25,-0.999999999999998,-19.));
#665=CARTESIAN_POINT('',(11.25,-0.999999999999998,19.));
#666=CARTESIAN_POINT('',(11.25,-0.999999999999998,16.75));
#667=CARTESIAN_POINT('',(11.25,-8.,19.));
#668=CARTESIAN_POINT('',(11.25,-8.,16.75));
#669=CARTESIAN_POINT('',(11.25,-0.999999999999998,19.));
#670=CARTESIAN_POINT('',(-17.5,-1.,24.));
#671=CARTESIAN_POINT('',(-17.5,-1.,24.));
#672=CARTESIAN_POINT('',(17.5,-1.,24.));
#673=CARTESIAN_POINT('',(17.5,-1.,24.));
#674=CARTESIAN_POINT('',(17.5,-1.,24.));
#675=CARTESIAN_POINT('',(17.5,-1.,24.));
#676=CARTESIAN_POINT('',(-17.5,-21.,24.));
#677=CARTESIAN_POINT('',(17.5,-21.,24.));
#678=CARTESIAN_POINT('',(17.5,-21.,24.));
#679=CARTESIAN_POINT('',(17.5,-21.,-24.));
#680=CARTESIAN_POINT('',(17.5,-1.00000000000001,-24.));
#681=CARTESIAN_POINT('',(-17.5,-21.,-24.));
#682=CARTESIAN_POINT('',(-17.5,-1.00000000000001,-24.));
#683=CARTESIAN_POINT('',(17.5,-1.00000000000001,-24.));
#684=CARTESIAN_POINT('',(17.5,-21.,-24.));
#685=CARTESIAN_POINT('',(-17.5,-1.00000000000001,-24.));
#686=CARTESIAN_POINT('',(-17.5,-1.,-15.9687194226713));
#687=CARTESIAN_POINT('',(17.5,-1.,-15.9687194226713));
#688=CARTESIAN_POINT('',(17.5,-1.,-15.9687194226713));
#689=CARTESIAN_POINT('',(17.5,-1.00000000000001,-24.));
#690=CARTESIAN_POINT('',(17.5,-1.00000000000001,-24.));
#691=CARTESIAN_POINT('',(-17.5,0.,0.));
#692=CARTESIAN_POINT('',(-17.5,-0.999999999999998,15.9687194226713));
#693=CARTESIAN_POINT('',(17.5,-0.999999999999998,15.9687194226713));
#694=CARTESIAN_POINT('',(17.5,-0.999999999999998,15.9687194226713));
#695=CARTESIAN_POINT('',(17.5,0.,0.));
#696=CARTESIAN_POINT('',(17.5,0.,0.));
#697=CARTESIAN_POINT('',(-17.5,-1.,15.9687194226713));
#698=CARTESIAN_POINT('',(17.5,-1.,15.9687194226713));
#699=CARTESIAN_POINT('',(17.5,-1.,15.9687194226713));
#700=CARTESIAN_POINT('',(17.5,0.,0.));
#701=CARTESIAN_POINT('',(-17.5,0.,0.));
#702=CARTESIAN_POINT('',(11.25,-8.,19.));
#703=CARTESIAN_POINT('',(11.25,-8.,19.));
#704=CARTESIAN_POINT('',(11.25,-31.,19.));
#705=CARTESIAN_POINT('',(11.25,-7.99999999999998,-19.));
#706=CARTESIAN_POINT('',(11.25,-7.99999999999998,-19.));
#707=CARTESIAN_POINT('',(11.25,-31.,-19.));
#708=CARTESIAN_POINT('',(-11.25,-8.,19.));
#709=CARTESIAN_POINT('',(-11.25,-8.,19.));
#710=CARTESIAN_POINT('',(-11.25,-31.,19.));
#711=CARTESIAN_POINT('',(-11.25,-7.99999999999998,-19.));
#712=CARTESIAN_POINT('',(-11.25,-7.99999999999998,-19.));
#713=CARTESIAN_POINT('',(-11.25,-31.,-19.));
#714=MECHANICAL_DESIGN_GEOMETRIC_PRESENTATION_REPRESENTATION('',(#102),
#715);
#715=(
GEOMETRIC_REPRESENTATION_CONTEXT(3)
GLOBAL_UNCERTAINTY_ASSIGNED_CONTEXT((#716))
GLOBAL_UNIT_ASSIGNED_CONTEXT((#722,#718,#717))
REPRESENTATION_CONTEXT('GETOUT_STAVE_82','TOP_LEVEL_ASSEMBLY_PART')
);
#716=UNCERTAINTY_MEASURE_WITH_UNIT(LENGTH_MEASURE(2.E-5),#722,
'DISTANCE_ACCURACY_VALUE','Maximum Tolerance applied to model');
#717=(
NAMED_UNIT(*)
SI_UNIT($,.STERADIAN.)
SOLID_ANGLE_UNIT()
);
#718=(
CONVERSION_BASED_UNIT('DEGREE',#720)
NAMED_UNIT(#719)
PLANE_ANGLE_UNIT()
);
#719=DIMENSIONAL_EXPONENTS(0.,0.,0.,0.,0.,0.,0.);
#720=PLANE_ANGLE_MEASURE_WITH_UNIT(PLANE_ANGLE_MEASURE(0.0174532925),#721);
#721=(
NAMED_UNIT(*)
PLANE_ANGLE_UNIT()
SI_UNIT($,.RADIAN.)
);
#722=(
LENGTH_UNIT()
NAMED_UNIT(*)
SI_UNIT(.MILLI.,.METRE.)
);
ENDSEC;
END-ISO-10303-21;
