ISO-10303-21;
HEADER;
/* Generated by software containing ST-Developer
 * from STEP Tools, Inc. (www.steptools.com) 
 */
/* OPTION: using custom schema-name function */

FILE_DESCRIPTION(
/* description */ (''),
/* implementation_level */ '2;1');

FILE_NAME(
/* name */ 'GETOUT_STAVE_88.stp',
/* time_stamp */ '2018-09-24T14:38:41+02:00',
/* author */ (''),
/* organization */ (''),
/* preprocessor_version */ 'ST-DEVELOPER v16.7',
/* originating_system */ 'SIEMENS PLM Software NX 12.0',
/* authorisation */ '');

FILE_SCHEMA (('AP203_CONFIGURATION_CONTROLLED_3D_DESIGN_OF_MECHANICAL_PARTS_AND_ASSEMBLIES_MIM_LF { 1 0 10303 403 2 1 2}'));
ENDSEC;

DATA;
#10=PROPERTY_DEFINITION_REPRESENTATION(#14,#12);
#11=PROPERTY_DEFINITION_REPRESENTATION(#15,#13);
#12=REPRESENTATION('',(#16),#633);
#13=REPRESENTATION('',(#17),#633);
#14=PROPERTY_DEFINITION('pmi validation property','',#89);
#15=PROPERTY_DEFINITION('pmi validation property','',#89);
#16=VALUE_REPRESENTATION_ITEM('number of annotations',COUNT_MEASURE(0.));
#17=VALUE_REPRESENTATION_ITEM('number of views',COUNT_MEASURE(0.));
#18=SHAPE_REPRESENTATION_RELATIONSHIP('None',
'relationship between turc0D301335k8dx-None and turc0D301335k8dx-None',
#100,#19);
#19=ADVANCED_BREP_SHAPE_REPRESENTATION('turc0D301335k8dx-None',(#110),#633);
#20=CC_DESIGN_APPROVAL(#32,(#90));
#21=CC_DESIGN_APPROVAL(#33,(#92));
#22=CC_DESIGN_APPROVAL(#34,(#39));
#23=APPROVAL_PERSON_ORGANIZATION(#77,#32,#26);
#24=APPROVAL_PERSON_ORGANIZATION(#78,#33,#27);
#25=APPROVAL_PERSON_ORGANIZATION(#79,#34,#28);
#26=APPROVAL_ROLE('approver');
#27=APPROVAL_ROLE('approver');
#28=APPROVAL_ROLE('approver');
#29=APPROVAL_DATE_TIME(#47,#32);
#30=APPROVAL_DATE_TIME(#48,#33);
#31=APPROVAL_DATE_TIME(#49,#34);
#32=APPROVAL(#35,' ');
#33=APPROVAL(#36,' ');
#34=APPROVAL(#37,' ');
#35=APPROVAL_STATUS('not_yet_approved');
#36=APPROVAL_STATUS('not_yet_approved');
#37=APPROVAL_STATUS('not_yet_approved');
#38=CC_DESIGN_SECURITY_CLASSIFICATION(#39,(#92));
#39=SECURITY_CLASSIFICATION(' ',' ',#40);
#40=SECURITY_CLASSIFICATION_LEVEL('confidential');
#41=CC_DESIGN_DATE_AND_TIME_ASSIGNMENT(#45,#43,(#90));
#42=CC_DESIGN_DATE_AND_TIME_ASSIGNMENT(#46,#44,(#39));
#43=DATE_TIME_ROLE('creation_date');
#44=DATE_TIME_ROLE('classification_date');
#45=DATE_AND_TIME(#60,#50);
#46=DATE_AND_TIME(#61,#51);
#47=DATE_AND_TIME(#62,#52);
#48=DATE_AND_TIME(#63,#53);
#49=DATE_AND_TIME(#64,#54);
#50=LOCAL_TIME(0,0,0.,#55);
#51=LOCAL_TIME(0,0,0.,#56);
#52=LOCAL_TIME(0,0,0.,#57);
#53=LOCAL_TIME(0,0,0.,#58);
#54=LOCAL_TIME(0,0,0.,#59);
#55=COORDINATED_UNIVERSAL_TIME_OFFSET(0,0,.BEHIND.);
#56=COORDINATED_UNIVERSAL_TIME_OFFSET(0,0,.BEHIND.);
#57=COORDINATED_UNIVERSAL_TIME_OFFSET(0,0,.BEHIND.);
#58=COORDINATED_UNIVERSAL_TIME_OFFSET(0,0,.BEHIND.);
#59=COORDINATED_UNIVERSAL_TIME_OFFSET(0,0,.BEHIND.);
#60=CALENDAR_DATE(0,1,1);
#61=CALENDAR_DATE(0,1,1);
#62=CALENDAR_DATE(0,1,1);
#63=CALENDAR_DATE(0,1,1);
#64=CALENDAR_DATE(0,1,1);
#65=CC_DESIGN_PERSON_AND_ORGANIZATION_ASSIGNMENT(#73,#69,(#90,#92));
#66=CC_DESIGN_PERSON_AND_ORGANIZATION_ASSIGNMENT(#74,#70,(#94));
#67=CC_DESIGN_PERSON_AND_ORGANIZATION_ASSIGNMENT(#75,#71,(#92));
#68=CC_DESIGN_PERSON_AND_ORGANIZATION_ASSIGNMENT(#76,#72,(#39));
#69=PERSON_AND_ORGANIZATION_ROLE('creator');
#70=PERSON_AND_ORGANIZATION_ROLE('design_owner');
#71=PERSON_AND_ORGANIZATION_ROLE('design_supplier');
#72=PERSON_AND_ORGANIZATION_ROLE('classification_officer');
#73=PERSON_AND_ORGANIZATION(#87,#80);
#74=PERSON_AND_ORGANIZATION(#87,#81);
#75=PERSON_AND_ORGANIZATION(#87,#82);
#76=PERSON_AND_ORGANIZATION(#87,#83);
#77=PERSON_AND_ORGANIZATION(#87,#84);
#78=PERSON_AND_ORGANIZATION(#87,#85);
#79=PERSON_AND_ORGANIZATION(#87,#86);
#80=ORGANIZATION(' ',' ',' ');
#81=ORGANIZATION(' ',' ',' ');
#82=ORGANIZATION(' ',' ',' ');
#83=ORGANIZATION(' ',' ',' ');
#84=ORGANIZATION(' ',' ',' ');
#85=ORGANIZATION(' ',' ',' ');
#86=ORGANIZATION(' ',' ',' ');
#87=PERSON(' ',' ',' ',(' '),$,$);
#88=SHAPE_DEFINITION_REPRESENTATION(#89,#100);
#89=PRODUCT_DEFINITION_SHAPE('','',#90);
#90=PRODUCT_DEFINITION(' ','',#92,#91);
#91=DESIGN_CONTEXT('',#99,'design');
#92=PRODUCT_DEFINITION_FORMATION_WITH_SPECIFIED_SOURCE(' ',' ',#94,
 .NOT_KNOWN.);
#93=PRODUCT_RELATED_PRODUCT_CATEGORY('detail','',(#94));
#94=PRODUCT('turc0D301335k8dx','turc0D301335k8dx',' ',(#97));
#95=PRODUCT_CATEGORY('part',' ');
#96=PRODUCT_CATEGORY(' ','');
#97=MECHANICAL_CONTEXT(' ',#99,'mechanical');
#98=APPLICATION_PROTOCOL_DEFINITION('international standard',
'config_control_design',2010,#99);
#99=APPLICATION_CONTEXT(
'configuration controlled 3D designs of mechanical parts and assemblie
s');
#100=SHAPE_REPRESENTATION('turc0D301335k8dx-None',(#404),#633);
#101=PRESENTATION_LAYER_ASSIGNMENT('1','Layer 1',(#110));
#102=STYLED_ITEM('',(#103),#110);
#103=PRESENTATION_STYLE_ASSIGNMENT((#104));
#104=SURFACE_STYLE_USAGE(.BOTH.,#105);
#105=SURFACE_SIDE_STYLE('',(#106));
#106=SURFACE_STYLE_FILL_AREA(#107);
#107=FILL_AREA_STYLE('',(#108));
#108=FILL_AREA_STYLE_COLOUR('',#109);
#109=COLOUR_RGB('Medium Steel',0.596063172350652,0.666666666666667,0.686259250782025);
#110=MANIFOLD_SOLID_BREP('',#111);
#111=CLOSED_SHELL('',(#159,#160,#161,#162,#163,#164,#165,#166,#167,#168,
#169,#170,#171,#172,#173,#174,#175,#176));
#112=CONICAL_SURFACE('',#437,2.15,45.);
#113=CONICAL_SURFACE('',#438,2.15,45.);
#114=B_SPLINE_CURVE_WITH_KNOTS('',3,(#603,#604,#605,#606,#607,#608,#609,
#610,#611,#612),.UNSPECIFIED.,.F.,.F.,(4,2,2,2,4),(0.,0.25,0.5,0.75,1.),
 .UNSPECIFIED.);
#115=B_SPLINE_CURVE_WITH_KNOTS('',3,(#617,#618,#619,#620,#621,#622,#623,
#624,#625,#626),.UNSPECIFIED.,.F.,.F.,(4,2,2,2,4),(0.,0.25,0.5,0.75,1.),
 .UNSPECIFIED.);
#116=CYLINDRICAL_SURFACE('',#410,16.);
#117=CYLINDRICAL_SURFACE('',#425,2.15);
#118=CYLINDRICAL_SURFACE('',#428,2.15);
#119=CYLINDRICAL_SURFACE('',#431,4.);
#120=CYLINDRICAL_SURFACE('',#434,4.);
#121=CYLINDRICAL_SURFACE('',#435,5.);
#122=CYLINDRICAL_SURFACE('',#436,5.);
#123=FACE_BOUND('',#195,.T.);
#124=FACE_BOUND('',#196,.T.);
#125=FACE_BOUND('',#198,.T.);
#126=FACE_BOUND('',#199,.T.);
#127=FACE_BOUND('',#204,.T.);
#128=FACE_BOUND('',#205,.T.);
#129=FACE_BOUND('',#206,.T.);
#130=FACE_BOUND('',#207,.T.);
#131=FACE_BOUND('',#208,.T.);
#132=FACE_BOUND('',#209,.T.);
#133=FACE_BOUND('',#210,.T.);
#134=FACE_BOUND('',#211,.T.);
#135=FACE_BOUND('',#212,.T.);
#136=FACE_BOUND('',#213,.T.);
#137=FACE_BOUND('',#214,.T.);
#138=FACE_BOUND('',#215,.T.);
#139=FACE_BOUND('',#218,.T.);
#140=FACE_BOUND('',#219,.T.);
#141=FACE_BOUND('',#220,.T.);
#142=FACE_BOUND('',#221,.T.);
#143=CIRCLE('',#406,2.65);
#144=CIRCLE('',#408,16.);
#145=CIRCLE('',#409,16.);
#146=CIRCLE('',#411,2.65);
#147=CIRCLE('',#414,4.);
#148=CIRCLE('',#415,4.);
#149=CIRCLE('',#417,5.);
#150=CIRCLE('',#418,5.);
#151=CIRCLE('',#420,5.);
#152=CIRCLE('',#421,5.);
#153=CIRCLE('',#423,2.15);
#154=CIRCLE('',#424,2.15);
#155=CIRCLE('',#426,2.15);
#156=CIRCLE('',#427,2.15);
#157=CIRCLE('',#429,4.);
#158=CIRCLE('',#432,4.);
#159=ADVANCED_FACE('',(#186),#177,.T.);
#160=ADVANCED_FACE('',(#123,#124),#178,.T.);
#161=ADVANCED_FACE('',(#187),#116,.F.);
#162=ADVANCED_FACE('',(#125,#126),#179,.T.);
#163=ADVANCED_FACE('',(#188),#180,.T.);
#164=ADVANCED_FACE('',(#189),#181,.T.);
#165=ADVANCED_FACE('',(#190),#182,.T.);
#166=ADVANCED_FACE('',(#191),#183,.F.);
#167=ADVANCED_FACE('',(#127,#128),#117,.F.);
#168=ADVANCED_FACE('',(#129,#130),#118,.F.);
#169=ADVANCED_FACE('',(#131,#132),#184,.F.);
#170=ADVANCED_FACE('',(#133,#134),#119,.F.);
#171=ADVANCED_FACE('',(#135,#136),#185,.F.);
#172=ADVANCED_FACE('',(#137,#138),#120,.F.);
#173=ADVANCED_FACE('',(#192),#121,.T.);
#174=ADVANCED_FACE('',(#193),#122,.T.);
#175=ADVANCED_FACE('',(#139,#140),#112,.F.);
#176=ADVANCED_FACE('',(#141,#142),#113,.F.);
#177=PLANE('',#405);
#178=PLANE('',#407);
#179=PLANE('',#412);
#180=PLANE('',#413);
#181=PLANE('',#416);
#182=PLANE('',#419);
#183=PLANE('',#422);
#184=PLANE('',#430);
#185=PLANE('',#433);
#186=FACE_OUTER_BOUND('',#194,.T.);
#187=FACE_OUTER_BOUND('',#197,.T.);
#188=FACE_OUTER_BOUND('',#200,.T.);
#189=FACE_OUTER_BOUND('',#201,.T.);
#190=FACE_OUTER_BOUND('',#202,.T.);
#191=FACE_OUTER_BOUND('',#203,.T.);
#192=FACE_OUTER_BOUND('',#216,.T.);
#193=FACE_OUTER_BOUND('',#217,.T.);
#194=EDGE_LOOP('',(#222,#223,#224,#225));
#195=EDGE_LOOP('',(#226));
#196=EDGE_LOOP('',(#227,#228,#229,#230));
#197=EDGE_LOOP('',(#231,#232,#233,#234));
#198=EDGE_LOOP('',(#235));
#199=EDGE_LOOP('',(#236,#237,#238,#239));
#200=EDGE_LOOP('',(#240,#241,#242,#243));
#201=EDGE_LOOP('',(#244,#245,#246,#247,#248,#249,#250,#251));
#202=EDGE_LOOP('',(#252,#253,#254,#255,#256,#257,#258,#259));
#203=EDGE_LOOP('',(#260,#261,#262,#263,#264,#265,#266,#267));
#204=EDGE_LOOP('',(#268));
#205=EDGE_LOOP('',(#269));
#206=EDGE_LOOP('',(#270));
#207=EDGE_LOOP('',(#271));
#208=EDGE_LOOP('',(#272));
#209=EDGE_LOOP('',(#273));
#210=EDGE_LOOP('',(#274));
#211=EDGE_LOOP('',(#275,#276));
#212=EDGE_LOOP('',(#277));
#213=EDGE_LOOP('',(#278));
#214=EDGE_LOOP('',(#279));
#215=EDGE_LOOP('',(#280,#281));
#216=EDGE_LOOP('',(#282,#283,#284,#285,#286,#287));
#217=EDGE_LOOP('',(#288,#289,#290,#291,#292,#293));
#218=EDGE_LOOP('',(#294));
#219=EDGE_LOOP('',(#295));
#220=EDGE_LOOP('',(#296));
#221=EDGE_LOOP('',(#297));
#222=ORIENTED_EDGE('',*,*,#326,.F.);
#223=ORIENTED_EDGE('',*,*,#327,.T.);
#224=ORIENTED_EDGE('',*,*,#328,.T.);
#225=ORIENTED_EDGE('',*,*,#329,.T.);
#226=ORIENTED_EDGE('',*,*,#330,.T.);
#227=ORIENTED_EDGE('',*,*,#331,.T.);
#228=ORIENTED_EDGE('',*,*,#332,.F.);
#229=ORIENTED_EDGE('',*,*,#329,.F.);
#230=ORIENTED_EDGE('',*,*,#333,.T.);
#231=ORIENTED_EDGE('',*,*,#334,.T.);
#232=ORIENTED_EDGE('',*,*,#335,.F.);
#233=ORIENTED_EDGE('',*,*,#331,.F.);
#234=ORIENTED_EDGE('',*,*,#336,.T.);
#235=ORIENTED_EDGE('',*,*,#337,.T.);
#236=ORIENTED_EDGE('',*,*,#338,.F.);
#237=ORIENTED_EDGE('',*,*,#334,.F.);
#238=ORIENTED_EDGE('',*,*,#339,.T.);
#239=ORIENTED_EDGE('',*,*,#340,.T.);
#240=ORIENTED_EDGE('',*,*,#341,.T.);
#241=ORIENTED_EDGE('',*,*,#342,.T.);
#242=ORIENTED_EDGE('',*,*,#343,.F.);
#243=ORIENTED_EDGE('',*,*,#340,.F.);
#244=ORIENTED_EDGE('',*,*,#344,.F.);
#245=ORIENTED_EDGE('',*,*,#345,.T.);
#246=ORIENTED_EDGE('',*,*,#346,.T.);
#247=ORIENTED_EDGE('',*,*,#347,.T.);
#248=ORIENTED_EDGE('',*,*,#348,.T.);
#249=ORIENTED_EDGE('',*,*,#349,.T.);
#250=ORIENTED_EDGE('',*,*,#350,.T.);
#251=ORIENTED_EDGE('',*,*,#351,.T.);
#252=ORIENTED_EDGE('',*,*,#348,.F.);
#253=ORIENTED_EDGE('',*,*,#352,.T.);
#254=ORIENTED_EDGE('',*,*,#341,.F.);
#255=ORIENTED_EDGE('',*,*,#339,.F.);
#256=ORIENTED_EDGE('',*,*,#336,.F.);
#257=ORIENTED_EDGE('',*,*,#333,.F.);
#258=ORIENTED_EDGE('',*,*,#328,.F.);
#259=ORIENTED_EDGE('',*,*,#353,.T.);
#260=ORIENTED_EDGE('',*,*,#343,.T.);
#261=ORIENTED_EDGE('',*,*,#354,.T.);
#262=ORIENTED_EDGE('',*,*,#344,.T.);
#263=ORIENTED_EDGE('',*,*,#355,.T.);
#264=ORIENTED_EDGE('',*,*,#326,.T.);
#265=ORIENTED_EDGE('',*,*,#332,.T.);
#266=ORIENTED_EDGE('',*,*,#335,.T.);
#267=ORIENTED_EDGE('',*,*,#338,.T.);
#268=ORIENTED_EDGE('',*,*,#356,.T.);
#269=ORIENTED_EDGE('',*,*,#357,.T.);
#270=ORIENTED_EDGE('',*,*,#358,.T.);
#271=ORIENTED_EDGE('',*,*,#359,.T.);
#272=ORIENTED_EDGE('',*,*,#360,.T.);
#273=ORIENTED_EDGE('',*,*,#359,.F.);
#274=ORIENTED_EDGE('',*,*,#360,.F.);
#275=ORIENTED_EDGE('',*,*,#350,.F.);
#276=ORIENTED_EDGE('',*,*,#361,.T.);
#277=ORIENTED_EDGE('',*,*,#362,.T.);
#278=ORIENTED_EDGE('',*,*,#357,.F.);
#279=ORIENTED_EDGE('',*,*,#362,.F.);
#280=ORIENTED_EDGE('',*,*,#346,.F.);
#281=ORIENTED_EDGE('',*,*,#363,.T.);
#282=ORIENTED_EDGE('',*,*,#363,.F.);
#283=ORIENTED_EDGE('',*,*,#345,.F.);
#284=ORIENTED_EDGE('',*,*,#354,.F.);
#285=ORIENTED_EDGE('',*,*,#342,.F.);
#286=ORIENTED_EDGE('',*,*,#352,.F.);
#287=ORIENTED_EDGE('',*,*,#347,.F.);
#288=ORIENTED_EDGE('',*,*,#353,.F.);
#289=ORIENTED_EDGE('',*,*,#327,.F.);
#290=ORIENTED_EDGE('',*,*,#355,.F.);
#291=ORIENTED_EDGE('',*,*,#351,.F.);
#292=ORIENTED_EDGE('',*,*,#361,.F.);
#293=ORIENTED_EDGE('',*,*,#349,.F.);
#294=ORIENTED_EDGE('',*,*,#330,.F.);
#295=ORIENTED_EDGE('',*,*,#358,.F.);
#296=ORIENTED_EDGE('',*,*,#337,.F.);
#297=ORIENTED_EDGE('',*,*,#356,.F.);
#298=VERTEX_POINT('',#531);
#299=VERTEX_POINT('',#532);
#300=VERTEX_POINT('',#534);
#301=VERTEX_POINT('',#536);
#302=VERTEX_POINT('',#540);
#303=VERTEX_POINT('',#542);
#304=VERTEX_POINT('',#543);
#305=VERTEX_POINT('',#548);
#306=VERTEX_POINT('',#549);
#307=VERTEX_POINT('',#554);
#308=VERTEX_POINT('',#556);
#309=VERTEX_POINT('',#558);
#310=VERTEX_POINT('',#562);
#311=VERTEX_POINT('',#564);
#312=VERTEX_POINT('',#568);
#313=VERTEX_POINT('',#569);
#314=VERTEX_POINT('',#571);
#315=VERTEX_POINT('',#573);
#316=VERTEX_POINT('',#575);
#317=VERTEX_POINT('',#577);
#318=VERTEX_POINT('',#579);
#319=VERTEX_POINT('',#581);
#320=VERTEX_POINT('',#591);
#321=VERTEX_POINT('',#593);
#322=VERTEX_POINT('',#596);
#323=VERTEX_POINT('',#598);
#324=VERTEX_POINT('',#601);
#325=VERTEX_POINT('',#615);
#326=EDGE_CURVE('',#298,#299,#364,.T.);
#327=EDGE_CURVE('',#298,#300,#365,.T.);
#328=EDGE_CURVE('',#300,#301,#366,.T.);
#329=EDGE_CURVE('',#301,#299,#367,.T.);
#330=EDGE_CURVE('',#302,#302,#143,.T.);
#331=EDGE_CURVE('',#303,#304,#368,.T.);
#332=EDGE_CURVE('',#299,#304,#369,.T.);
#333=EDGE_CURVE('',#301,#303,#370,.T.);
#334=EDGE_CURVE('',#305,#306,#371,.T.);
#335=EDGE_CURVE('',#304,#306,#144,.T.);
#336=EDGE_CURVE('',#303,#305,#145,.T.);
#337=EDGE_CURVE('',#307,#307,#146,.T.);
#338=EDGE_CURVE('',#306,#308,#372,.T.);
#339=EDGE_CURVE('',#305,#309,#373,.T.);
#340=EDGE_CURVE('',#309,#308,#374,.T.);
#341=EDGE_CURVE('',#309,#310,#375,.T.);
#342=EDGE_CURVE('',#310,#311,#376,.T.);
#343=EDGE_CURVE('',#308,#311,#377,.T.);
#344=EDGE_CURVE('',#312,#313,#378,.T.);
#345=EDGE_CURVE('',#312,#314,#379,.T.);
#346=EDGE_CURVE('',#314,#315,#147,.T.);
#347=EDGE_CURVE('',#315,#316,#380,.T.);
#348=EDGE_CURVE('',#316,#317,#381,.T.);
#349=EDGE_CURVE('',#317,#318,#382,.T.);
#350=EDGE_CURVE('',#318,#319,#148,.T.);
#351=EDGE_CURVE('',#319,#313,#383,.T.);
#352=EDGE_CURVE('',#316,#310,#149,.T.);
#353=EDGE_CURVE('',#300,#317,#150,.T.);
#354=EDGE_CURVE('',#311,#312,#151,.T.);
#355=EDGE_CURVE('',#313,#298,#152,.T.);
#356=EDGE_CURVE('',#320,#320,#153,.T.);
#357=EDGE_CURVE('',#321,#321,#154,.T.);
#358=EDGE_CURVE('',#322,#322,#155,.T.);
#359=EDGE_CURVE('',#323,#323,#156,.T.);
#360=EDGE_CURVE('',#324,#324,#157,.T.);
#361=EDGE_CURVE('',#318,#319,#114,.T.);
#362=EDGE_CURVE('',#325,#325,#158,.T.);
#363=EDGE_CURVE('',#314,#315,#115,.T.);
#364=LINE('',#530,#384);
#365=LINE('',#533,#385);
#366=LINE('',#535,#386);
#367=LINE('',#537,#387);
#368=LINE('',#541,#388);
#369=LINE('',#544,#389);
#370=LINE('',#545,#390);
#371=LINE('',#547,#391);
#372=LINE('',#555,#392);
#373=LINE('',#557,#393);
#374=LINE('',#559,#394);
#375=LINE('',#561,#395);
#376=LINE('',#563,#396);
#377=LINE('',#565,#397);
#378=LINE('',#567,#398);
#379=LINE('',#570,#399);
#380=LINE('',#574,#400);
#381=LINE('',#576,#401);
#382=LINE('',#578,#402);
#383=LINE('',#582,#403);
#384=VECTOR('',#441,1.);
#385=VECTOR('',#442,1.);
#386=VECTOR('',#443,1.);
#387=VECTOR('',#444,1.);
#388=VECTOR('',#449,1.);
#389=VECTOR('',#450,1.);
#390=VECTOR('',#451,1.);
#391=VECTOR('',#454,1.);
#392=VECTOR('',#463,1.);
#393=VECTOR('',#464,1.);
#394=VECTOR('',#465,1.);
#395=VECTOR('',#468,1.);
#396=VECTOR('',#469,1.);
#397=VECTOR('',#470,1.);
#398=VECTOR('',#473,1.);
#399=VECTOR('',#474,1.);
#400=VECTOR('',#477,1.);
#401=VECTOR('',#478,1.);
#402=VECTOR('',#479,1.);
#403=VECTOR('',#482,1.);
#404=AXIS2_PLACEMENT_3D('',#529,#439,#440);
#405=AXIS2_PLACEMENT_3D('',#538,#445,#446);
#406=AXIS2_PLACEMENT_3D('',#539,#447,#448);
#407=AXIS2_PLACEMENT_3D('',#546,#452,#453);
#408=AXIS2_PLACEMENT_3D('',#550,#455,#456);
#409=AXIS2_PLACEMENT_3D('',#551,#457,#458);
#410=AXIS2_PLACEMENT_3D('',#552,#459,#460);
#411=AXIS2_PLACEMENT_3D('',#553,#461,#462);
#412=AXIS2_PLACEMENT_3D('',#560,#466,#467);
#413=AXIS2_PLACEMENT_3D('',#566,#471,#472);
#414=AXIS2_PLACEMENT_3D('',#572,#475,#476);
#415=AXIS2_PLACEMENT_3D('',#580,#480,#481);
#416=AXIS2_PLACEMENT_3D('',#583,#483,#484);
#417=AXIS2_PLACEMENT_3D('',#584,#485,#486);
#418=AXIS2_PLACEMENT_3D('',#585,#487,#488);
#419=AXIS2_PLACEMENT_3D('',#586,#489,#490);
#420=AXIS2_PLACEMENT_3D('',#587,#491,#492);
#421=AXIS2_PLACEMENT_3D('',#588,#493,#494);
#422=AXIS2_PLACEMENT_3D('',#589,#495,#496);
#423=AXIS2_PLACEMENT_3D('',#590,#497,#498);
#424=AXIS2_PLACEMENT_3D('',#592,#499,#500);
#425=AXIS2_PLACEMENT_3D('',#594,#501,#502);
#426=AXIS2_PLACEMENT_3D('',#595,#503,#504);
#427=AXIS2_PLACEMENT_3D('',#597,#505,#506);
#428=AXIS2_PLACEMENT_3D('',#599,#507,#508);
#429=AXIS2_PLACEMENT_3D('',#600,#509,#510);
#430=AXIS2_PLACEMENT_3D('',#602,#511,#512);
#431=AXIS2_PLACEMENT_3D('',#613,#513,#514);
#432=AXIS2_PLACEMENT_3D('',#614,#515,#516);
#433=AXIS2_PLACEMENT_3D('',#616,#517,#518);
#434=AXIS2_PLACEMENT_3D('',#627,#519,#520);
#435=AXIS2_PLACEMENT_3D('',#628,#521,#522);
#436=AXIS2_PLACEMENT_3D('',#629,#523,#524);
#437=AXIS2_PLACEMENT_3D('',#630,#525,#526);
#438=AXIS2_PLACEMENT_3D('',#631,#527,#528);
#439=DIRECTION('',(0.,0.,1.));
#440=DIRECTION('',(1.,0.,0.));
#441=DIRECTION('',(1.,-1.42336285208354E-15,0.));
#442=DIRECTION('',(0.,0.,1.));
#443=DIRECTION('',(1.,-1.42336285208354E-15,0.));
#444=DIRECTION('',(0.,0.,-1.));
#445=DIRECTION('',(1.42336285208354E-15,1.,0.));
#446=DIRECTION('',(-1.,1.42941214420489E-15,0.));
#447=DIRECTION('',(-1.,0.,0.));
#448=DIRECTION('',(0.,0.,-1.));
#449=DIRECTION('',(0.,0.,-1.));
#450=DIRECTION('',(0.,-1.,0.));
#451=DIRECTION('',(0.,-1.,0.));
#452=DIRECTION('',(1.,0.,0.));
#453=DIRECTION('',(0.,0.,-1.));
#454=DIRECTION('',(0.,0.,-1.));
#455=DIRECTION('',(0.,0.,1.));
#456=DIRECTION('',(1.,0.,0.));
#457=DIRECTION('',(0.,0.,1.));
#458=DIRECTION('',(1.,0.,0.));
#459=DIRECTION('',(0.,0.,-1.));
#460=DIRECTION('',(-1.,0.,0.));
#461=DIRECTION('',(-1.,0.,0.));
#462=DIRECTION('',(0.,0.,-1.));
#463=DIRECTION('',(0.,-1.,0.));
#464=DIRECTION('',(0.,-1.,0.));
#465=DIRECTION('',(0.,0.,-1.));
#466=DIRECTION('',(1.,0.,0.));
#467=DIRECTION('',(0.,0.,-1.));
#468=DIRECTION('',(-1.,-1.06752213906265E-15,0.));
#469=DIRECTION('',(0.,0.,-1.));
#470=DIRECTION('',(-1.,-1.06752213906265E-15,0.));
#471=DIRECTION('',(1.06752213906265E-15,-1.,0.));
#472=DIRECTION('',(1.,1.06858966120171E-15,0.));
#473=DIRECTION('',(0.,1.,0.));
#474=DIRECTION('',(0.,0.,1.));
#475=DIRECTION('',(1.,0.,0.));
#476=DIRECTION('',(0.,0.,-1.));
#477=DIRECTION('',(0.,0.,1.));
#478=DIRECTION('',(-3.30423519233677E-16,1.,0.));
#479=DIRECTION('',(0.,0.,-1.));
#480=DIRECTION('',(1.,0.,0.));
#481=DIRECTION('',(0.,0.,-1.));
#482=DIRECTION('',(0.,0.,-1.));
#483=DIRECTION('',(-1.,0.,0.));
#484=DIRECTION('',(0.,0.,1.));
#485=DIRECTION('',(0.,0.,1.));
#486=DIRECTION('',(1.,0.,0.));
#487=DIRECTION('',(0.,0.,1.));
#488=DIRECTION('',(1.,0.,0.));
#489=DIRECTION('',(0.,0.,1.));
#490=DIRECTION('',(1.,0.,0.));
#491=DIRECTION('',(0.,0.,-1.));
#492=DIRECTION('',(1.,0.,0.));
#493=DIRECTION('',(0.,0.,-1.));
#494=DIRECTION('',(1.,0.,0.));
#495=DIRECTION('',(0.,0.,1.));
#496=DIRECTION('',(1.,0.,0.));
#497=DIRECTION('',(1.,0.,0.));
#498=DIRECTION('',(0.,0.,-1.));
#499=DIRECTION('',(-1.,0.,0.));
#500=DIRECTION('',(0.,0.,-1.));
#501=DIRECTION('',(1.,0.,0.));
#502=DIRECTION('',(0.,0.,-1.));
#503=DIRECTION('',(1.,0.,0.));
#504=DIRECTION('',(0.,0.,-1.));
#505=DIRECTION('',(-1.,0.,0.));
#506=DIRECTION('',(0.,0.,-1.));
#507=DIRECTION('',(1.,0.,0.));
#508=DIRECTION('',(0.,0.,-1.));
#509=DIRECTION('',(-1.,0.,0.));
#510=DIRECTION('',(0.,0.,-1.));
#511=DIRECTION('',(1.,0.,0.));
#512=DIRECTION('',(0.,0.,-1.));
#513=DIRECTION('',(1.,0.,0.));
#514=DIRECTION('',(0.,0.,-1.));
#515=DIRECTION('',(-1.,0.,0.));
#516=DIRECTION('',(0.,0.,-1.));
#517=DIRECTION('',(1.,0.,0.));
#518=DIRECTION('',(0.,0.,-1.));
#519=DIRECTION('',(1.,0.,0.));
#520=DIRECTION('',(0.,0.,-1.));
#521=DIRECTION('',(0.,0.,-1.));
#522=DIRECTION('',(-0.999999999999999,0.,0.));
#523=DIRECTION('',(0.,0.,-1.));
#524=DIRECTION('',(-0.999999999999999,0.,0.));
#525=DIRECTION('',(1.,0.,0.));
#526=DIRECTION('',(4.84680510176626E-17,0.,-1.));
#527=DIRECTION('',(1.,0.,0.));
#528=DIRECTION('',(4.50060473735439E-17,0.,-1.));
#529=CARTESIAN_POINT('',(0.,0.,0.));
#530=CARTESIAN_POINT('',(-36.5,92.,0.));
#531=CARTESIAN_POINT('',(-31.5,92.,0.));
#532=CARTESIAN_POINT('',(-17.,92.,0.));
#533=CARTESIAN_POINT('',(-31.5,92.,14.));
#534=CARTESIAN_POINT('',(-31.5,92.,14.));
#535=CARTESIAN_POINT('',(-36.5,92.,14.));
#536=CARTESIAN_POINT('',(-17.,92.,14.));
#537=CARTESIAN_POINT('',(-17.,92.,14.));
#538=CARTESIAN_POINT('',(-36.5,92.,14.));
#539=CARTESIAN_POINT('',(-17.,87.,7.));
#540=CARTESIAN_POINT('',(-17.,87.,4.35));
#541=CARTESIAN_POINT('',(-17.,82.9687194226713,14.));
#542=CARTESIAN_POINT('',(-17.,82.9687194226713,14.));
#543=CARTESIAN_POINT('',(-17.,82.9687194226713,0.));
#544=CARTESIAN_POINT('',(-17.,88.,0.));
#545=CARTESIAN_POINT('',(-17.,88.,14.));
#546=CARTESIAN_POINT('',(-17.,88.,14.));
#547=CARTESIAN_POINT('',(-17.,51.0312805773287,14.));
#548=CARTESIAN_POINT('',(-17.,51.0312805773287,14.));
#549=CARTESIAN_POINT('',(-17.,51.0312805773287,0.));
#550=CARTESIAN_POINT('',(-16.,67.,0.));
#551=CARTESIAN_POINT('',(-16.,67.,14.));
#552=CARTESIAN_POINT('',(-16.,67.,14.));
#553=CARTESIAN_POINT('',(-17.,47.,7.));
#554=CARTESIAN_POINT('',(-17.,47.,4.35));
#555=CARTESIAN_POINT('',(-17.,51.0312805773287,0.));
#556=CARTESIAN_POINT('',(-17.,42.,0.));
#557=CARTESIAN_POINT('',(-17.,51.0312805773287,14.));
#558=CARTESIAN_POINT('',(-17.,42.,14.));
#559=CARTESIAN_POINT('',(-17.,42.,14.));
#560=CARTESIAN_POINT('',(-17.,51.0312805773287,14.));
#561=CARTESIAN_POINT('',(-17.,42.,14.));
#562=CARTESIAN_POINT('',(-31.5,42.,14.));
#563=CARTESIAN_POINT('',(-31.5,42.,14.));
#564=CARTESIAN_POINT('',(-31.5,42.,0.));
#565=CARTESIAN_POINT('',(-17.,42.,0.));
#566=CARTESIAN_POINT('',(-17.,42.,14.));
#567=CARTESIAN_POINT('',(-36.5,67.,0.));
#568=CARTESIAN_POINT('',(-36.5,47.,0.));
#569=CARTESIAN_POINT('',(-36.5,87.,0.));
#570=CARTESIAN_POINT('',(-36.5,47.,14.));
#571=CARTESIAN_POINT('',(-36.5,47.,3.));
#572=CARTESIAN_POINT('',(-36.5,47.,7.));
#573=CARTESIAN_POINT('',(-36.5,47.,11.));
#574=CARTESIAN_POINT('',(-36.5,47.,14.));
#575=CARTESIAN_POINT('',(-36.5,47.,14.));
#576=CARTESIAN_POINT('',(-36.5,46.,14.));
#577=CARTESIAN_POINT('',(-36.5,87.,14.));
#578=CARTESIAN_POINT('',(-36.5,87.,14.));
#579=CARTESIAN_POINT('',(-36.5,87.,11.));
#580=CARTESIAN_POINT('',(-36.5,87.,7.));
#581=CARTESIAN_POINT('',(-36.5,87.,3.));
#582=CARTESIAN_POINT('',(-36.5,87.,14.));
#583=CARTESIAN_POINT('',(-36.5,67.,14.));
#584=CARTESIAN_POINT('',(-31.5,47.,14.));
#585=CARTESIAN_POINT('',(-31.5,87.,14.));
#586=CARTESIAN_POINT('',(-16.,67.,14.));
#587=CARTESIAN_POINT('',(-31.5,47.,0.));
#588=CARTESIAN_POINT('',(-31.5,87.,0.));
#589=CARTESIAN_POINT('',(-16.,67.,0.));
#590=CARTESIAN_POINT('',(-17.5,47.,7.));
#591=CARTESIAN_POINT('',(-17.5,47.,4.85));
#592=CARTESIAN_POINT('',(-24.,47.,7.));
#593=CARTESIAN_POINT('',(-24.,47.,4.85));
#594=CARTESIAN_POINT('',(-36.5,47.,7.));
#595=CARTESIAN_POINT('',(-17.5,87.,7.));
#596=CARTESIAN_POINT('',(-17.5,87.,4.85));
#597=CARTESIAN_POINT('',(-24.,87.,7.));
#598=CARTESIAN_POINT('',(-24.,87.,4.85));
#599=CARTESIAN_POINT('',(-36.5,87.,7.));
#600=CARTESIAN_POINT('',(-24.,87.,7.));
#601=CARTESIAN_POINT('',(-24.,87.,3.));
#602=CARTESIAN_POINT('',(-24.,87.,7.));
#603=CARTESIAN_POINT('',(-36.5,87.,11.));
#604=CARTESIAN_POINT('',(-36.5,88.121859676083,11.));
#605=CARTESIAN_POINT('',(-36.0908536838998,89.1546887560429,10.5132746879225));
#606=CARTESIAN_POINT('',(-35.1240913183005,90.5474756234558,9.09790356527673));
#607=CARTESIAN_POINT('',(-34.5006140707881,90.9995394467984,8.10818767775706));
#608=CARTESIAN_POINT('',(-34.499386851749,91.0004598612988,5.8951395500942));
#609=CARTESIAN_POINT('',(-35.1184980732518,90.5546852052389,4.9106064632593));
#610=CARTESIAN_POINT('',(-36.0932206299375,89.1521244060667,3.48293975022742));
#611=CARTESIAN_POINT('',(-36.5,88.122824512757,3.00000000000001));
#612=CARTESIAN_POINT('',(-36.5,87.,3.));
#613=CARTESIAN_POINT('',(-36.5,87.,7.));
#614=CARTESIAN_POINT('',(-24.,47.,7.));
#615=CARTESIAN_POINT('',(-24.,47.,3.));
#616=CARTESIAN_POINT('',(-24.,47.,7.));
#617=CARTESIAN_POINT('',(-36.5,47.,3.));
#618=CARTESIAN_POINT('',(-36.5,45.878140323917,3.));
#619=CARTESIAN_POINT('',(-36.0908536838998,44.8453112439571,3.48672531207753));
#620=CARTESIAN_POINT('',(-35.1240913183005,43.4525243765441,4.90209643472327));
#621=CARTESIAN_POINT('',(-34.500614070788,43.0004605532016,5.89181232224294));
#622=CARTESIAN_POINT('',(-34.499386851749,42.9995401387012,8.10486044990581));
#623=CARTESIAN_POINT('',(-35.1184980732518,43.4453147947611,9.0893935367407));
#624=CARTESIAN_POINT('',(-36.0932206299375,44.8478755939333,10.5170602497726));
#625=CARTESIAN_POINT('',(-36.5,45.877175487243,11.));
#626=CARTESIAN_POINT('',(-36.5,47.,11.));
#627=CARTESIAN_POINT('',(-36.5,47.,7.));
#628=CARTESIAN_POINT('',(-31.5,47.,14.));
#629=CARTESIAN_POINT('',(-31.5,87.,14.));
#630=CARTESIAN_POINT('',(-17.5,87.,7.));
#631=CARTESIAN_POINT('',(-17.5,47.,7.));
#632=MECHANICAL_DESIGN_GEOMETRIC_PRESENTATION_REPRESENTATION('',(#102),
#633);
#633=(
GEOMETRIC_REPRESENTATION_CONTEXT(3)
GLOBAL_UNCERTAINTY_ASSIGNED_CONTEXT((#634))
GLOBAL_UNIT_ASSIGNED_CONTEXT((#640,#636,#635))
REPRESENTATION_CONTEXT('GETOUT_STAVE_88','TOP_LEVEL_ASSEMBLY_PART')
);
#634=UNCERTAINTY_MEASURE_WITH_UNIT(LENGTH_MEASURE(0.0508),#640,
'DISTANCE_ACCURACY_VALUE','Maximum Tolerance applied to model');
#635=(
NAMED_UNIT(*)
SI_UNIT($,.STERADIAN.)
SOLID_ANGLE_UNIT()
);
#636=(
CONVERSION_BASED_UNIT('DEGREE',#638)
NAMED_UNIT(#637)
PLANE_ANGLE_UNIT()
);
#637=DIMENSIONAL_EXPONENTS(0.,0.,0.,0.,0.,0.,0.);
#638=PLANE_ANGLE_MEASURE_WITH_UNIT(PLANE_ANGLE_MEASURE(0.0174532925),#639);
#639=(
NAMED_UNIT(*)
PLANE_ANGLE_UNIT()
SI_UNIT($,.RADIAN.)
);
#640=(
LENGTH_UNIT()
NAMED_UNIT(*)
SI_UNIT(.MILLI.,.METRE.)
);
ENDSEC;
END-ISO-10303-21;
