ISO-10303-21;
HEADER;
/* Generated by software containing ST-Developer
 * from STEP Tools, Inc. (www.steptools.com) 
 */
/* OPTION: using custom schema-name function */

FILE_DESCRIPTION(
/* description */ (''),
/* implementation_level */ '2;1');

FILE_NAME(
/* name */ '00000121.stp',
/* time_stamp */ '2023-11-13T16:59:46+01:00',
/* author */ (''),
/* organization */ (''),
/* preprocessor_version */ 'ST-DEVELOPER v19.4',
/* originating_system */ 'SIEMENS PLM Software NX2306.5001',
/* authorisation */ '');

FILE_SCHEMA (('AP203_CONFIGURATION_CONTROLLED_3D_DESIGN_OF_MECHANICAL_PARTS_AND_ASSEMBLIES_MIM_LF { 1 0 10303 403 2 1 2}'));
ENDSEC;

DATA;
#10=PROPERTY_DEFINITION_REPRESENTATION(#14,#12);
#11=PROPERTY_DEFINITION_REPRESENTATION(#15,#13);
#12=REPRESENTATION('',(#16),#407);
#13=REPRESENTATION('',(#17),#407);
#14=PROPERTY_DEFINITION('pmi validation property','',#73);
#15=PROPERTY_DEFINITION('pmi validation property','',#73);
#16=VALUE_REPRESENTATION_ITEM('number of annotations',COUNT_MEASURE(0.));
#17=VALUE_REPRESENTATION_ITEM('number of views',COUNT_MEASURE(0.));
#18=SHAPE_REPRESENTATION_RELATIONSHIP('None',
'relationship between ROLLER_objects-None and ROLLER_objects-None',#84,
#19);
#19=ADVANCED_BREP_SHAPE_REPRESENTATION('ROLLER_objects-None',(#94),#407);
#20=APPLIED_APPROVAL_ASSIGNMENT(#32,(#74));
#21=APPLIED_APPROVAL_ASSIGNMENT(#33,(#76));
#22=APPLIED_APPROVAL_ASSIGNMENT(#34,(#46));
#23=APPROVAL_PERSON_ORGANIZATION(#38,#32,#26);
#24=APPROVAL_PERSON_ORGANIZATION(#39,#33,#27);
#25=APPROVAL_PERSON_ORGANIZATION(#40,#34,#28);
#26=APPROVAL_ROLE('approver');
#27=APPROVAL_ROLE('approver');
#28=APPROVAL_ROLE('approver');
#29=APPROVAL_DATE_TIME(#54,#32);
#30=APPROVAL_DATE_TIME(#55,#33);
#31=APPROVAL_DATE_TIME(#56,#34);
#32=APPROVAL(#35,' ');
#33=APPROVAL(#36,' ');
#34=APPROVAL(#37,' ');
#35=APPROVAL_STATUS('not_yet_approved');
#36=APPROVAL_STATUS('not_yet_approved');
#37=APPROVAL_STATUS('not_yet_approved');
#38=PERSON_AND_ORGANIZATION(#44,#41);
#39=PERSON_AND_ORGANIZATION(#44,#42);
#40=PERSON_AND_ORGANIZATION(#44,#43);
#41=ORGANIZATION(' ',' ',' ');
#42=ORGANIZATION(' ',' ',' ');
#43=ORGANIZATION(' ',' ',' ');
#44=PERSON(' ',' ',' ',(' '),$,$);
#45=APPLIED_SECURITY_CLASSIFICATION_ASSIGNMENT(#46,(#76));
#46=SECURITY_CLASSIFICATION(' ',' ',#47);
#47=SECURITY_CLASSIFICATION_LEVEL('confidential');
#48=APPLIED_DATE_AND_TIME_ASSIGNMENT(#52,#50,(#74));
#49=APPLIED_DATE_AND_TIME_ASSIGNMENT(#53,#51,(#46));
#50=DATE_TIME_ROLE('creation_date');
#51=DATE_TIME_ROLE('classification_date');
#52=DATE_AND_TIME(#67,#57);
#53=DATE_AND_TIME(#68,#58);
#54=DATE_AND_TIME(#69,#59);
#55=DATE_AND_TIME(#70,#60);
#56=DATE_AND_TIME(#71,#61);
#57=LOCAL_TIME(0,0,0.,#62);
#58=LOCAL_TIME(0,0,0.,#63);
#59=LOCAL_TIME(0,0,0.,#64);
#60=LOCAL_TIME(0,0,0.,#65);
#61=LOCAL_TIME(0,0,0.,#66);
#62=COORDINATED_UNIVERSAL_TIME_OFFSET(0,0,.BEHIND.);
#63=COORDINATED_UNIVERSAL_TIME_OFFSET(0,0,.BEHIND.);
#64=COORDINATED_UNIVERSAL_TIME_OFFSET(0,0,.BEHIND.);
#65=COORDINATED_UNIVERSAL_TIME_OFFSET(0,0,.BEHIND.);
#66=COORDINATED_UNIVERSAL_TIME_OFFSET(0,0,.BEHIND.);
#67=CALENDAR_DATE(0,1,1);
#68=CALENDAR_DATE(0,1,1);
#69=CALENDAR_DATE(0,1,1);
#70=CALENDAR_DATE(0,1,1);
#71=CALENDAR_DATE(0,1,1);
#72=SHAPE_DEFINITION_REPRESENTATION(#73,#84);
#73=PRODUCT_DEFINITION_SHAPE('','',#74);
#74=PRODUCT_DEFINITION(' ','',#76,#75);
#75=PRODUCT_DEFINITION_CONTEXT('part definition',#83,'design');
#76=PRODUCT_DEFINITION_FORMATION_WITH_SPECIFIED_SOURCE(' ',' ',#78,
 .NOT_KNOWN.);
#77=PRODUCT_RELATED_PRODUCT_CATEGORY('detail','',(#78));
#78=PRODUCT('ROLLER_objects','ROLLER_objects',' ',(#81));
#79=PRODUCT_CATEGORY('part',' ');
#80=PRODUCT_CATEGORY(' ','');
#81=PRODUCT_CONTEXT(' ',#83,'mechanical');
#82=APPLICATION_PROTOCOL_DEFINITION('international standard',
'config_control_design',2010,#83);
#83=APPLICATION_CONTEXT(
'configuration controlled 3D designs of mechanical parts and assemblie
s');
#84=SHAPE_REPRESENTATION('ROLLER_objects-None',(#263),#407);
#85=PRESENTATION_LAYER_ASSIGNMENT('1','Layer 1',(#94));
#86=STYLED_ITEM('',(#87),#94);
#87=PRESENTATION_STYLE_ASSIGNMENT((#88));
#88=SURFACE_STYLE_USAGE(.BOTH.,#89);
#89=SURFACE_SIDE_STYLE('',(#90));
#90=SURFACE_STYLE_FILL_AREA(#91);
#91=FILL_AREA_STYLE('',(#92));
#92=FILL_AREA_STYLE_COLOUR('',#93);
#93=COLOUR_RGB('medium blue',0.254901960784314,0.376470588235294,1.);
#94=MANIFOLD_SOLID_BREP('2BF',#95);
#95=CLOSED_SHELL('',(#135,#136,#137,#138,#139,#140,#141,#142,#143,#144,
#145,#146,#147,#148,#149,#150));
#96=CONICAL_SURFACE('',#292,1.48375000000133,44.9999999999998);
#97=CONICAL_SURFACE('',#293,2.34999999998493,45.);
#98=CONICAL_SURFACE('',#294,2.49999999998493,44.9999999999997);
#99=SPHERICAL_SURFACE('',#291,2.1500000000411);
#100=TOROIDAL_SURFACE('',#286,2.04999999998816,0.800000000000232);
#101=TOROIDAL_SURFACE('',#290,2.0499999999901,0.79999999999974);
#102=CYLINDRICAL_SURFACE('',#268,1.48375000000133);
#103=CYLINDRICAL_SURFACE('',#272,0.949999999958041);
#104=CYLINDRICAL_SURFACE('',#276,1.48375000001656);
#105=CYLINDRICAL_SURFACE('',#281,2.49999999998493);
#106=CYLINDRICAL_SURFACE('',#288,1.24999999998917);
#107=FACE_BOUND('',#159,.T.);
#108=FACE_BOUND('',#160,.T.);
#109=FACE_BOUND('',#161,.T.);
#110=FACE_BOUND('',#162,.T.);
#111=FACE_BOUND('',#163,.T.);
#112=FACE_BOUND('',#164,.T.);
#113=FACE_BOUND('',#165,.T.);
#114=FACE_BOUND('',#166,.T.);
#115=FACE_BOUND('',#167,.T.);
#116=FACE_BOUND('',#168,.T.);
#117=FACE_BOUND('',#169,.T.);
#118=FACE_BOUND('',#170,.T.);
#119=FACE_BOUND('',#171,.T.);
#120=FACE_BOUND('',#172,.T.);
#121=FACE_BOUND('',#173,.T.);
#122=FACE_BOUND('',#174,.T.);
#123=FACE_BOUND('',#175,.T.);
#124=FACE_BOUND('',#176,.T.);
#125=FACE_BOUND('',#177,.T.);
#126=FACE_BOUND('',#178,.T.);
#127=FACE_BOUND('',#179,.T.);
#128=FACE_BOUND('',#180,.T.);
#129=FACE_BOUND('',#182,.T.);
#130=FACE_BOUND('',#183,.T.);
#131=FACE_BOUND('',#184,.T.);
#132=FACE_BOUND('',#185,.T.);
#133=FACE_BOUND('',#186,.T.);
#134=FACE_BOUND('',#187,.T.);
#135=ADVANCED_FACE('',(#156),#151,.T.);
#136=ADVANCED_FACE('',(#107,#108),#102,.T.);
#137=ADVANCED_FACE('',(#109,#110),#152,.T.);
#138=ADVANCED_FACE('',(#111,#112),#103,.T.);
#139=ADVANCED_FACE('',(#113,#114),#153,.T.);
#140=ADVANCED_FACE('',(#115,#116),#104,.T.);
#141=ADVANCED_FACE('',(#117,#118),#154,.T.);
#142=ADVANCED_FACE('',(#119,#120),#105,.T.);
#143=ADVANCED_FACE('',(#121,#122),#155,.T.);
#144=ADVANCED_FACE('',(#123,#124),#100,.F.);
#145=ADVANCED_FACE('',(#125,#126),#106,.T.);
#146=ADVANCED_FACE('',(#127,#128),#101,.F.);
#147=ADVANCED_FACE('',(#157),#99,.T.);
#148=ADVANCED_FACE('',(#129,#130),#96,.T.);
#149=ADVANCED_FACE('',(#131,#132),#97,.T.);
#150=ADVANCED_FACE('',(#133,#134),#98,.T.);
#151=PLANE('',#265);
#152=PLANE('',#270);
#153=PLANE('',#274);
#154=PLANE('',#278);
#155=PLANE('',#284);
#156=FACE_OUTER_BOUND('',#158,.T.);
#157=FACE_OUTER_BOUND('',#181,.T.);
#158=EDGE_LOOP('',(#188));
#159=EDGE_LOOP('',(#189));
#160=EDGE_LOOP('',(#190));
#161=EDGE_LOOP('',(#191));
#162=EDGE_LOOP('',(#192));
#163=EDGE_LOOP('',(#193));
#164=EDGE_LOOP('',(#194));
#165=EDGE_LOOP('',(#195));
#166=EDGE_LOOP('',(#196));
#167=EDGE_LOOP('',(#197));
#168=EDGE_LOOP('',(#198));
#169=EDGE_LOOP('',(#199));
#170=EDGE_LOOP('',(#200));
#171=EDGE_LOOP('',(#201));
#172=EDGE_LOOP('',(#202));
#173=EDGE_LOOP('',(#203));
#174=EDGE_LOOP('',(#204));
#175=EDGE_LOOP('',(#205));
#176=EDGE_LOOP('',(#206));
#177=EDGE_LOOP('',(#207));
#178=EDGE_LOOP('',(#208));
#179=EDGE_LOOP('',(#209));
#180=EDGE_LOOP('',(#210));
#181=EDGE_LOOP('',(#211));
#182=EDGE_LOOP('',(#212));
#183=EDGE_LOOP('',(#213));
#184=EDGE_LOOP('',(#214));
#185=EDGE_LOOP('',(#215));
#186=EDGE_LOOP('',(#216));
#187=EDGE_LOOP('',(#217));
#188=ORIENTED_EDGE('',*,*,#233,.T.);
#189=ORIENTED_EDGE('',*,*,#234,.T.);
#190=ORIENTED_EDGE('',*,*,#235,.F.);
#191=ORIENTED_EDGE('',*,*,#236,.F.);
#192=ORIENTED_EDGE('',*,*,#235,.T.);
#193=ORIENTED_EDGE('',*,*,#236,.T.);
#194=ORIENTED_EDGE('',*,*,#237,.F.);
#195=ORIENTED_EDGE('',*,*,#237,.T.);
#196=ORIENTED_EDGE('',*,*,#238,.F.);
#197=ORIENTED_EDGE('',*,*,#238,.T.);
#198=ORIENTED_EDGE('',*,*,#239,.F.);
#199=ORIENTED_EDGE('',*,*,#240,.T.);
#200=ORIENTED_EDGE('',*,*,#239,.T.);
#201=ORIENTED_EDGE('',*,*,#241,.T.);
#202=ORIENTED_EDGE('',*,*,#242,.T.);
#203=ORIENTED_EDGE('',*,*,#243,.T.);
#204=ORIENTED_EDGE('',*,*,#244,.F.);
#205=ORIENTED_EDGE('',*,*,#244,.T.);
#206=ORIENTED_EDGE('',*,*,#245,.F.);
#207=ORIENTED_EDGE('',*,*,#245,.T.);
#208=ORIENTED_EDGE('',*,*,#246,.F.);
#209=ORIENTED_EDGE('',*,*,#246,.T.);
#210=ORIENTED_EDGE('',*,*,#247,.F.);
#211=ORIENTED_EDGE('',*,*,#247,.T.);
#212=ORIENTED_EDGE('',*,*,#233,.F.);
#213=ORIENTED_EDGE('',*,*,#234,.F.);
#214=ORIENTED_EDGE('',*,*,#241,.F.);
#215=ORIENTED_EDGE('',*,*,#243,.F.);
#216=ORIENTED_EDGE('',*,*,#240,.F.);
#217=ORIENTED_EDGE('',*,*,#242,.F.);
#218=VERTEX_POINT('',#361);
#219=VERTEX_POINT('',#364);
#220=VERTEX_POINT('',#366);
#221=VERTEX_POINT('',#369);
#222=VERTEX_POINT('',#372);
#223=VERTEX_POINT('',#375);
#224=VERTEX_POINT('',#378);
#225=VERTEX_POINT('',#381);
#226=VERTEX_POINT('',#384);
#227=VERTEX_POINT('',#386);
#228=VERTEX_POINT('',#389);
#229=VERTEX_POINT('',#391);
#230=VERTEX_POINT('',#394);
#231=VERTEX_POINT('',#397);
#232=VERTEX_POINT('',#400);
#233=EDGE_CURVE('',#218,#218,#248,.T.);
#234=EDGE_CURVE('',#219,#219,#249,.T.);
#235=EDGE_CURVE('',#220,#220,#250,.T.);
#236=EDGE_CURVE('',#221,#221,#251,.T.);
#237=EDGE_CURVE('',#222,#222,#252,.T.);
#238=EDGE_CURVE('',#223,#223,#253,.T.);
#239=EDGE_CURVE('',#224,#224,#254,.T.);
#240=EDGE_CURVE('',#225,#225,#255,.T.);
#241=EDGE_CURVE('',#226,#226,#256,.T.);
#242=EDGE_CURVE('',#227,#227,#257,.T.);
#243=EDGE_CURVE('',#228,#228,#258,.T.);
#244=EDGE_CURVE('',#229,#229,#259,.T.);
#245=EDGE_CURVE('',#230,#230,#260,.T.);
#246=EDGE_CURVE('',#231,#231,#261,.T.);
#247=EDGE_CURVE('',#232,#232,#262,.T.);
#248=CIRCLE('',#264,1.33375000000133);
#249=CIRCLE('',#266,1.48375000000133);
#250=CIRCLE('',#267,1.48375000000243);
#251=CIRCLE('',#269,0.949999999957329);
#252=CIRCLE('',#271,0.949999999958954);
#253=CIRCLE('',#273,1.48375000000406);
#254=CIRCLE('',#275,1.48375000002911);
#255=CIRCLE('',#277,2.34999999998493);
#256=CIRCLE('',#279,2.49999999998493);
#257=CIRCLE('',#280,2.49999999998493);
#258=CIRCLE('',#282,2.34999999998493);
#259=CIRCLE('',#283,2.04999999998585);
#260=CIRCLE('',#285,1.24999999998793);
#261=CIRCLE('',#287,1.24999999999032);
#262=CIRCLE('',#289,1.4940677966143);
#263=AXIS2_PLACEMENT_3D('',#359,#295,#296);
#264=AXIS2_PLACEMENT_3D('',#360,#297,#298);
#265=AXIS2_PLACEMENT_3D('',#362,#299,#300);
#266=AXIS2_PLACEMENT_3D('',#363,#301,#302);
#267=AXIS2_PLACEMENT_3D('',#365,#303,#304);
#268=AXIS2_PLACEMENT_3D('',#367,#305,#306);
#269=AXIS2_PLACEMENT_3D('',#368,#307,#308);
#270=AXIS2_PLACEMENT_3D('',#370,#309,#310);
#271=AXIS2_PLACEMENT_3D('',#371,#311,#312);
#272=AXIS2_PLACEMENT_3D('',#373,#313,#314);
#273=AXIS2_PLACEMENT_3D('',#374,#315,#316);
#274=AXIS2_PLACEMENT_3D('',#376,#317,#318);
#275=AXIS2_PLACEMENT_3D('',#377,#319,#320);
#276=AXIS2_PLACEMENT_3D('',#379,#321,#322);
#277=AXIS2_PLACEMENT_3D('',#380,#323,#324);
#278=AXIS2_PLACEMENT_3D('',#382,#325,#326);
#279=AXIS2_PLACEMENT_3D('',#383,#327,#328);
#280=AXIS2_PLACEMENT_3D('',#385,#329,#330);
#281=AXIS2_PLACEMENT_3D('',#387,#331,#332);
#282=AXIS2_PLACEMENT_3D('',#388,#333,#334);
#283=AXIS2_PLACEMENT_3D('',#390,#335,#336);
#284=AXIS2_PLACEMENT_3D('',#392,#337,#338);
#285=AXIS2_PLACEMENT_3D('',#393,#339,#340);
#286=AXIS2_PLACEMENT_3D('',#395,#341,#342);
#287=AXIS2_PLACEMENT_3D('',#396,#343,#344);
#288=AXIS2_PLACEMENT_3D('',#398,#345,#346);
#289=AXIS2_PLACEMENT_3D('',#399,#347,#348);
#290=AXIS2_PLACEMENT_3D('',#401,#349,#350);
#291=AXIS2_PLACEMENT_3D('',#402,#351,#352);
#292=AXIS2_PLACEMENT_3D('',#403,#353,#354);
#293=AXIS2_PLACEMENT_3D('',#404,#355,#356);
#294=AXIS2_PLACEMENT_3D('',#405,#357,#358);
#295=DIRECTION('',(0.,0.,1.));
#296=DIRECTION('',(1.,0.,0.));
#297=DIRECTION('',(2.3201033744051E-12,-1.,9.95799250110951E-17));
#298=DIRECTION('',(1.,2.32033490619646E-12,0.));
#299=DIRECTION('',(2.3201033744051E-12,-1.,9.95799250110951E-17));
#300=DIRECTION('',(5.5944832100252E-16,0.,-1.));
#301=DIRECTION('',(-2.32010337440508E-12,1.,-9.95799250110951E-17));
#302=DIRECTION('',(1.,2.31958980713388E-12,0.));
#303=DIRECTION('',(-2.3201033744051E-12,1.,-9.95799250110951E-17));
#304=DIRECTION('',(-3.44509284840699E-16,0.,1.));
#305=DIRECTION('',(-2.3201033744051E-12,1.,-9.95799250110951E-17));
#306=DIRECTION('',(1.,2.31958980713388E-12,5.84574044136599E-16));
#307=DIRECTION('',(-2.3201033744051E-12,1.,-9.95799250110951E-17));
#308=DIRECTION('',(-3.44509284840492E-16,0.,1.));
#309=DIRECTION('',(-2.3201033744051E-12,1.,-9.95799250110951E-17));
#310=DIRECTION('',(-2.7972416050126E-16,0.,1.));
#311=DIRECTION('',(-2.3201033744051E-12,1.,-9.95799250110951E-17));
#312=DIRECTION('',(-3.44509284839902E-16,0.,1.));
#313=DIRECTION('',(-2.3201033744051E-12,1.,-9.95799250110951E-17));
#314=DIRECTION('',(1.,2.31905138377668E-12,-1.38394459487092E-32));
#315=DIRECTION('',(-2.3201033744051E-12,1.,-9.95799250110951E-17));
#316=DIRECTION('',(-3.44509284840321E-16,0.,1.));
#317=DIRECTION('',(2.3201033744051E-12,-1.,9.95799250110951E-17));
#318=DIRECTION('',(5.5944832100252E-16,0.,-1.));
#319=DIRECTION('',(-2.3201033744051E-12,1.,-9.95799250110951E-17));
#320=DIRECTION('',(-3.44509284840087E-16,0.,1.));
#321=DIRECTION('',(-2.3201033744051E-12,1.,-9.95799250110951E-17));
#322=DIRECTION('',(1.,2.31958980711007E-12,5.84574044130598E-16));
#323=DIRECTION('',(2.3201033744051E-12,-1.,9.95799250110951E-17));
#324=DIRECTION('',(1.,2.32010037660854E-12,0.));
#325=DIRECTION('',(2.3201033744051E-12,-1.,9.95799250110951E-17));
#326=DIRECTION('',(5.5944832100252E-16,0.,-1.));
#327=DIRECTION('',(2.32010337440509E-12,-1.,9.95799250110946E-17));
#328=DIRECTION('',(-1.,-2.32001917678537E-12,0.));
#329=DIRECTION('',(-2.3201033744051E-12,1.,-9.95799250110951E-17));
#330=DIRECTION('',(1.,2.32001917678537E-12,0.));
#331=DIRECTION('',(-2.3201033744051E-12,1.,-9.95799250110951E-17));
#332=DIRECTION('',(1.,2.32001917678537E-12,3.46944695197475E-16));
#333=DIRECTION('',(-2.3201033744051E-12,1.,-9.95799250110951E-17));
#334=DIRECTION('',(-1.,-2.32010037660854E-12,0.));
#335=DIRECTION('',(-2.3201033744051E-12,1.,-9.95799250110951E-17));
#336=DIRECTION('',(-3.44509284840003E-16,0.,1.));
#337=DIRECTION('',(-2.3201033744051E-12,1.,-9.95799250110951E-17));
#338=DIRECTION('',(-5.5944832100252E-16,0.,1.));
#339=DIRECTION('',(-2.3201033744051E-12,1.,-9.95799250110951E-17));
#340=DIRECTION('',(-3.44509284840152E-16,0.,1.));
#341=DIRECTION('',(-2.3201033744051E-12,1.,-9.95799250110951E-17));
#342=DIRECTION('',(-3.44509284840122E-16,0.,1.));
#343=DIRECTION('',(-2.3201033744051E-12,1.,-9.95799250110951E-17));
#344=DIRECTION('',(-3.44509284839809E-16,0.,1.));
#345=DIRECTION('',(-2.3201033744051E-12,1.,-9.95799250110951E-17));
#346=DIRECTION('',(1.,2.32001917679148E-12,2.61643346955709E-32));
#347=DIRECTION('',(-2.3201033744051E-12,1.,-9.95799250110951E-17));
#348=DIRECTION('',(-3.44509284839783E-16,1.45134266991419E-16,1.));
#349=DIRECTION('',(-2.3201033744051E-12,1.,-9.95799250110951E-17));
#350=DIRECTION('',(-3.44509284840085E-16,0.,1.));
#351=DIRECTION('',(-3.44509284839288E-16,-6.12375273192203E-17,1.));
#352=DIRECTION('',(2.2204460492669E-16,-1.,0.));
#353=DIRECTION('',(-2.32010337440508E-12,1.,-9.95799250110951E-17));
#354=DIRECTION('',(-1.,-2.32014325568239E-12,2.24759575230511E-33));
#355=DIRECTION('',(2.32010337440509E-12,-1.,9.95799250110946E-17));
#356=DIRECTION('',(1.,2.32005571092873E-12,-3.08026781273591E-33));
#357=DIRECTION('',(-2.3201033744051E-12,1.,-9.95799250110951E-17));
#358=DIRECTION('',(-1.,-2.32010223585059E-12,-5.19905028628239E-33));
#359=CARTESIAN_POINT('',(0.,0.,0.));
#360=CARTESIAN_POINT('',(3.11733768457107E-11,-18.0499999999984,4.97899625055291E-17));
#361=CARTESIAN_POINT('',(1.33375000003251,-18.0499999999953,4.97899625055291E-17));
#362=CARTESIAN_POINT('',(1.48375000003135,-18.0499999999949,0.));
#363=CARTESIAN_POINT('',(3.08253613395499E-11,-17.8999999999984,3.48529737538647E-17));
#364=CARTESIAN_POINT('',(1.48375000003216,-17.8999999999949,3.48529737538647E-17));
#365=CARTESIAN_POINT('',(2.88764567812924E-11,-17.0499999999985,0.));
#366=CARTESIAN_POINT('',(1.48375000003135,-17.0499999999949,0.));
#367=CARTESIAN_POINT('',(3.00133251585085E-11,-17.5499999999985,0.));
#368=CARTESIAN_POINT('',(2.88764567812924E-11,-17.0499999999971,0.));
#369=CARTESIAN_POINT('',(0.949999999986236,-17.0499999999949,0.));
#370=CARTESIAN_POINT('',(0.949999999986236,-17.0499999999949,0.));
#371=CARTESIAN_POINT('',(2.72848410531896E-11,-16.3499999999973,0.));
#372=CARTESIAN_POINT('',(0.949999999986236,-16.349999999995,0.));
#373=CARTESIAN_POINT('',(2.81943357549626E-11,-16.6999999999972,0.));
#374=CARTESIAN_POINT('',(2.72848410531896E-11,-16.3499999999986,0.));
#375=CARTESIAN_POINT('',(1.48375000003135,-16.349999999995,0.));
#376=CARTESIAN_POINT('',(1.48375000003135,-16.349999999995,0.));
#377=CARTESIAN_POINT('',(2.27373675443246E-12,-5.04999999999778,0.));
#378=CARTESIAN_POINT('',(1.48375000003135,-5.04999999999412,0.));
#379=CARTESIAN_POINT('',(1.47792889038111E-11,-10.4499999999982,0.));
#380=CARTESIAN_POINT('',(2.29692006441852E-12,-5.04999999999992,4.97899625055365E-17));
#381=CARTESIAN_POINT('',(2.34999999998723,-5.04999999999447,4.97899625055365E-17));
#382=CARTESIAN_POINT('',(2.49999999998606,-5.04999999999412,0.));
#383=CARTESIAN_POINT('',(3.24832196171617E-13,-4.19999999999881,-3.48529737540047E-17));
#384=CARTESIAN_POINT('',(-2.49999999998461,-4.20000000000461,-3.48529737540047E-17));
#385=CARTESIAN_POINT('',(1.94890455825776E-12,-4.89999999999992,3.48529737538721E-17));
#386=CARTESIAN_POINT('',(2.49999999998688,-4.89999999999412,3.48529737538721E-17));
#387=CARTESIAN_POINT('',(1.13686837721623E-12,-4.55000000000003,0.));
#388=CARTESIAN_POINT('',(-2.31833099891475E-14,-4.04999999999881,-4.97899625056689E-17));
#389=CARTESIAN_POINT('',(-2.34999999998495,-4.05000000000426,-4.97899625056689E-17));
#390=CARTESIAN_POINT('',(3.94430452610506E-28,-4.04999999999862,0.));
#391=CARTESIAN_POINT('',(2.04999999998576,-4.04999999999406,0.));
#392=CARTESIAN_POINT('',(2.04999999998576,-4.04999999999406,0.));
#393=CARTESIAN_POINT('',(-2.04636307898923E-12,-3.24999999999656,0.));
#394=CARTESIAN_POINT('',(1.24999999998598,-3.24999999999385,0.));
#395=CARTESIAN_POINT('',(-2.04636307898923E-12,-3.24999999999837,0.));
#396=CARTESIAN_POINT('',(-4.54747350886494E-12,-2.12112784796696,0.));
#397=CARTESIAN_POINT('',(1.24999999998576,-2.12112784796421,0.));
#398=CARTESIAN_POINT('',(-3.18323145620544E-12,-2.68556392398176,0.));
#399=CARTESIAN_POINT('',(-5.9117155615244E-12,-1.5458545344487,0.));
#400=CARTESIAN_POINT('',(1.4940677966084,-1.54585453444508,0.));
#401=CARTESIAN_POINT('',(-4.54747350886494E-12,-2.12112784796877,0.));
#402=CARTESIAN_POINT('',(3.1377567211168E-11,0.000192495639510758,0.));
#403=CARTESIAN_POINT('',(3.08253613395499E-11,-17.8999999999984,3.48529737538647E-17));
#404=CARTESIAN_POINT('',(-2.31833099891491E-14,-4.04999999999881,-4.9789962505669E-17));
#405=CARTESIAN_POINT('',(1.94890455825776E-12,-4.89999999999992,3.48529737538721E-17));
#406=MECHANICAL_DESIGN_GEOMETRIC_PRESENTATION_REPRESENTATION('',(#86),#407);
#407=(
GEOMETRIC_REPRESENTATION_CONTEXT(3)
GLOBAL_UNCERTAINTY_ASSIGNED_CONTEXT((#408))
GLOBAL_UNIT_ASSIGNED_CONTEXT((#414,#410,#409))
REPRESENTATION_CONTEXT('00000121','TOP_LEVEL_ASSEMBLY_PART')
);
#408=UNCERTAINTY_MEASURE_WITH_UNIT(LENGTH_MEASURE(3.937007874016E-5),#414,
'DISTANCE_ACCURACY_VALUE','Maximum Tolerance applied to model');
#409=(
NAMED_UNIT(*)
SI_UNIT($,.STERADIAN.)
SOLID_ANGLE_UNIT()
);
#410=(
CONVERSION_BASED_UNIT('DEGREE',#412)
NAMED_UNIT(#411)
PLANE_ANGLE_UNIT()
);
#411=DIMENSIONAL_EXPONENTS(0.,0.,0.,0.,0.,0.,0.);
#412=PLANE_ANGLE_MEASURE_WITH_UNIT(PLANE_ANGLE_MEASURE(0.0174532925),#413);
#413=(
NAMED_UNIT(*)
PLANE_ANGLE_UNIT()
SI_UNIT($,.RADIAN.)
);
#414=(
LENGTH_UNIT()
NAMED_UNIT(*)
SI_UNIT(.MILLI.,.METRE.)
);
ENDSEC;
END-ISO-10303-21;
