ISO-10303-21;
HEADER;
/* Generated by software containing ST-Developer
 * from STEP Tools, Inc. (www.steptools.com) 
 */
/* OPTION: using custom schema-name function */

FILE_DESCRIPTION(
/* description */ (''),
/* implementation_level */ '2;1');

FILE_NAME(
/* name */ 'Aladdin_00287_06_v2.stp',
/* time_stamp */ '2024-10-02T14:02:32+02:00',
/* author */ (''),
/* organization */ (''),
/* preprocessor_version */ 'ST-DEVELOPER v19.4',
/* originating_system */ 'SIEMENS PLM Software NX2306.9102',
/* authorisation */ '');

FILE_SCHEMA (('AUTOMOTIVE_DESIGN { 1 0 10303 214 3 1 1 1 }'));
ENDSEC;

DATA;
#10=PROPERTY_DEFINITION_REPRESENTATION(#14,#12);
#11=PROPERTY_DEFINITION_REPRESENTATION(#15,#13);
#12=REPRESENTATION('',(#16),#583);
#13=REPRESENTATION('',(#17),#583);
#14=PROPERTY_DEFINITION('pmi validation property','',#21);
#15=PROPERTY_DEFINITION('pmi validation property','',#21);
#16=VALUE_REPRESENTATION_ITEM('number of annotations',COUNT_MEASURE(0.));
#17=VALUE_REPRESENTATION_ITEM('number of views',COUNT_MEASURE(0.));
#18=SHAPE_REPRESENTATION_RELATIONSHIP('None',
'relationship between 00287_06_v2_objects-None and 00287_06_v2_objects
-None',#30,#19);
#19=ADVANCED_BREP_SHAPE_REPRESENTATION('00287_06_v2_objects-None',(#40),
#583);
#20=SHAPE_DEFINITION_REPRESENTATION(#21,#30);
#21=PRODUCT_DEFINITION_SHAPE('','',#22);
#22=PRODUCT_DEFINITION(' ','',#24,#23);
#23=PRODUCT_DEFINITION_CONTEXT('part definition',#29,'design');
#24=PRODUCT_DEFINITION_FORMATION_WITH_SPECIFIED_SOURCE(' ',' ',#26,
 .NOT_KNOWN.);
#25=PRODUCT_RELATED_PRODUCT_CATEGORY('part','',(#26));
#26=PRODUCT('00287_06_v2_objects','00287_06_v2_objects',' ',(#27));
#27=PRODUCT_CONTEXT(' ',#29,'mechanical');
#28=APPLICATION_PROTOCOL_DEFINITION('international standard',
'automotive_design',2010,#29);
#29=APPLICATION_CONTEXT(
'core data for automotive mechanical design processes');
#30=SHAPE_REPRESENTATION('00287_06_v2_objects-None',(#350),#583);
#31=PRESENTATION_LAYER_ASSIGNMENT('1','Layer 1',(#40));
#32=STYLED_ITEM('',(#33),#40);
#33=PRESENTATION_STYLE_ASSIGNMENT((#34));
#34=SURFACE_STYLE_USAGE(.BOTH.,#35);
#35=SURFACE_SIDE_STYLE('',(#36));
#36=SURFACE_STYLE_FILL_AREA(#37);
#37=FILL_AREA_STYLE('',(#38));
#38=FILL_AREA_STYLE_COLOUR('',#39);
#39=COLOUR_RGB('medium steel',0.611764705882353,0.658823529411765,0.670588235294118);
#40=MANIFOLD_SOLID_BREP('',#41);
#41=CLOSED_SHELL('',(#84,#85,#86,#87,#88,#89,#90,#91,#92,#93,#94,#95,#96,
#97,#98,#99,#100,#101,#102,#103,#104,#105));
#42=VERTEX_LOOP('',#297);
#43=VERTEX_LOOP('',#300);
#44=CONICAL_SURFACE('',#375,0.,45.);
#45=CONICAL_SURFACE('',#376,0.,45.);
#46=CONICAL_SURFACE('',#381,0.,45.);
#47=CONICAL_SURFACE('',#382,0.,45.);
#48=CONICAL_SURFACE('',#384,1.,59.);
#49=CONICAL_SURFACE('',#388,0.,45.);
#50=CONICAL_SURFACE('',#390,1.,59.);
#51=CONICAL_SURFACE('',#394,0.,45.);
#52=FACE_OUTER_BOUND('',#173,.T.);
#53=FACE_OUTER_BOUND('',#179,.T.);
#54=PLANE('',#360);
#55=PLANE('',#363);
#56=PLANE('',#364);
#57=PLANE('',#367);
#58=PLANE('',#369);
#59=PLANE('',#370);
#60=LINE('',#514,#72);
#61=LINE('',#517,#73);
#62=LINE('',#519,#74);
#63=LINE('',#521,#75);
#64=LINE('',#527,#76);
#65=LINE('',#529,#77);
#66=LINE('',#531,#78);
#67=LINE('',#533,#79);
#68=LINE('',#535,#80);
#69=LINE('',#541,#81);
#70=LINE('',#543,#82);
#71=LINE('',#547,#83);
#72=VECTOR('',#415,1.);
#73=VECTOR('',#416,1.);
#74=VECTOR('',#417,1.);
#75=VECTOR('',#418,1.);
#76=VECTOR('',#425,1.);
#77=VECTOR('',#426,1.);
#78=VECTOR('',#427,1.);
#79=VECTOR('',#430,1.);
#80=VECTOR('',#431,1.);
#81=VECTOR('',#438,1.);
#82=VECTOR('',#439,1.);
#83=VECTOR('',#444,1.);
#84=ADVANCED_FACE('',(#122,#123),#106,.F.);
#85=ADVANCED_FACE('',(#124,#125),#107,.F.);
#86=ADVANCED_FACE('',(#126,#127),#54,.T.);
#87=ADVANCED_FACE('',(#128,#129,#130),#55,.T.);
#88=ADVANCED_FACE('',(#52),#56,.T.);
#89=ADVANCED_FACE('',(#131,#132,#133),#57,.T.);
#90=ADVANCED_FACE('',(#134,#135),#58,.T.);
#91=ADVANCED_FACE('',(#53),#59,.T.);
#92=ADVANCED_FACE('',(#136,#137),#108,.F.);
#93=ADVANCED_FACE('',(#138,#139),#44,.F.);
#94=ADVANCED_FACE('',(#140,#141),#45,.F.);
#95=ADVANCED_FACE('',(#142,#143),#109,.F.);
#96=ADVANCED_FACE('',(#144,#145),#46,.F.);
#97=ADVANCED_FACE('',(#146,#147),#47,.F.);
#98=ADVANCED_FACE('',(#148,#149),#48,.F.);
#99=ADVANCED_FACE('',(#150,#151),#110,.F.);
#100=ADVANCED_FACE('',(#152,#153),#111,.F.);
#101=ADVANCED_FACE('',(#154,#155),#49,.F.);
#102=ADVANCED_FACE('',(#156,#157),#50,.F.);
#103=ADVANCED_FACE('',(#158,#159),#112,.F.);
#104=ADVANCED_FACE('',(#160,#161),#113,.F.);
#105=ADVANCED_FACE('',(#162,#163),#51,.F.);
#106=CYLINDRICAL_SURFACE('',#354,1.);
#107=CYLINDRICAL_SURFACE('',#358,1.);
#108=CYLINDRICAL_SURFACE('',#374,1.);
#109=CYLINDRICAL_SURFACE('',#380,1.);
#110=CYLINDRICAL_SURFACE('',#385,1.);
#111=CYLINDRICAL_SURFACE('',#387,1.);
#112=CYLINDRICAL_SURFACE('',#391,1.);
#113=CYLINDRICAL_SURFACE('',#393,1.);
#114=ELLIPSE('',#352,1.41421356237309,1.);
#115=ELLIPSE('',#353,1.41421356237309,1.);
#116=ELLIPSE('',#356,1.41421356237309,1.);
#117=ELLIPSE('',#357,1.41421356237309,1.);
#118=ELLIPSE('',#371,1.41421356237309,1.);
#119=ELLIPSE('',#372,1.41421356237309,1.);
#120=ELLIPSE('',#377,1.41421356237309,1.);
#121=ELLIPSE('',#378,1.41421356237309,1.);
#122=FACE_BOUND('',#164,.T.);
#123=FACE_BOUND('',#165,.T.);
#124=FACE_BOUND('',#166,.T.);
#125=FACE_BOUND('',#167,.T.);
#126=FACE_BOUND('',#168,.T.);
#127=FACE_BOUND('',#169,.T.);
#128=FACE_BOUND('',#170,.T.);
#129=FACE_BOUND('',#171,.T.);
#130=FACE_BOUND('',#172,.T.);
#131=FACE_BOUND('',#174,.T.);
#132=FACE_BOUND('',#175,.T.);
#133=FACE_BOUND('',#176,.T.);
#134=FACE_BOUND('',#177,.T.);
#135=FACE_BOUND('',#178,.T.);
#136=FACE_BOUND('',#180,.T.);
#137=FACE_BOUND('',#181,.T.);
#138=FACE_BOUND('',#182,.T.);
#139=FACE_BOUND('',#183,.T.);
#140=FACE_BOUND('',#184,.T.);
#141=FACE_BOUND('',#185,.T.);
#142=FACE_BOUND('',#186,.T.);
#143=FACE_BOUND('',#187,.T.);
#144=FACE_BOUND('',#188,.T.);
#145=FACE_BOUND('',#189,.T.);
#146=FACE_BOUND('',#190,.T.);
#147=FACE_BOUND('',#191,.T.);
#148=FACE_BOUND('',#192,.T.);
#149=FACE_BOUND('',#42,.T.);
#150=FACE_BOUND('',#193,.T.);
#151=FACE_BOUND('',#194,.T.);
#152=FACE_BOUND('',#195,.T.);
#153=FACE_BOUND('',#196,.T.);
#154=FACE_BOUND('',#197,.T.);
#155=FACE_BOUND('',#198,.T.);
#156=FACE_BOUND('',#199,.T.);
#157=FACE_BOUND('',#43,.T.);
#158=FACE_BOUND('',#200,.T.);
#159=FACE_BOUND('',#201,.T.);
#160=FACE_BOUND('',#202,.T.);
#161=FACE_BOUND('',#203,.T.);
#162=FACE_BOUND('',#204,.T.);
#163=FACE_BOUND('',#205,.T.);
#164=EDGE_LOOP('',(#206));
#165=EDGE_LOOP('',(#207,#208));
#166=EDGE_LOOP('',(#209));
#167=EDGE_LOOP('',(#210,#211));
#168=EDGE_LOOP('',(#212));
#169=EDGE_LOOP('',(#213,#214,#215,#216));
#170=EDGE_LOOP('',(#217));
#171=EDGE_LOOP('',(#218));
#172=EDGE_LOOP('',(#219,#220,#221,#222));
#173=EDGE_LOOP('',(#223,#224,#225,#226));
#174=EDGE_LOOP('',(#227));
#175=EDGE_LOOP('',(#228));
#176=EDGE_LOOP('',(#229,#230,#231,#232));
#177=EDGE_LOOP('',(#233));
#178=EDGE_LOOP('',(#234,#235,#236,#237));
#179=EDGE_LOOP('',(#238,#239,#240,#241));
#180=EDGE_LOOP('',(#242,#243));
#181=EDGE_LOOP('',(#244));
#182=EDGE_LOOP('',(#245));
#183=EDGE_LOOP('',(#246));
#184=EDGE_LOOP('',(#247));
#185=EDGE_LOOP('',(#248));
#186=EDGE_LOOP('',(#249,#250));
#187=EDGE_LOOP('',(#251));
#188=EDGE_LOOP('',(#252));
#189=EDGE_LOOP('',(#253));
#190=EDGE_LOOP('',(#254));
#191=EDGE_LOOP('',(#255));
#192=EDGE_LOOP('',(#256));
#193=EDGE_LOOP('',(#257));
#194=EDGE_LOOP('',(#258,#259));
#195=EDGE_LOOP('',(#260));
#196=EDGE_LOOP('',(#261,#262));
#197=EDGE_LOOP('',(#263));
#198=EDGE_LOOP('',(#264));
#199=EDGE_LOOP('',(#265));
#200=EDGE_LOOP('',(#266));
#201=EDGE_LOOP('',(#267,#268));
#202=EDGE_LOOP('',(#269));
#203=EDGE_LOOP('',(#270,#271));
#204=EDGE_LOOP('',(#272));
#205=EDGE_LOOP('',(#273));
#206=ORIENTED_EDGE('',*,*,#302,.T.);
#207=ORIENTED_EDGE('',*,*,#303,.T.);
#208=ORIENTED_EDGE('',*,*,#304,.T.);
#209=ORIENTED_EDGE('',*,*,#305,.T.);
#210=ORIENTED_EDGE('',*,*,#306,.T.);
#211=ORIENTED_EDGE('',*,*,#307,.T.);
#212=ORIENTED_EDGE('',*,*,#308,.F.);
#213=ORIENTED_EDGE('',*,*,#309,.F.);
#214=ORIENTED_EDGE('',*,*,#310,.F.);
#215=ORIENTED_EDGE('',*,*,#311,.F.);
#216=ORIENTED_EDGE('',*,*,#312,.F.);
#217=ORIENTED_EDGE('',*,*,#313,.F.);
#218=ORIENTED_EDGE('',*,*,#314,.F.);
#219=ORIENTED_EDGE('',*,*,#315,.T.);
#220=ORIENTED_EDGE('',*,*,#309,.T.);
#221=ORIENTED_EDGE('',*,*,#316,.F.);
#222=ORIENTED_EDGE('',*,*,#317,.T.);
#223=ORIENTED_EDGE('',*,*,#316,.T.);
#224=ORIENTED_EDGE('',*,*,#312,.T.);
#225=ORIENTED_EDGE('',*,*,#318,.F.);
#226=ORIENTED_EDGE('',*,*,#319,.T.);
#227=ORIENTED_EDGE('',*,*,#320,.F.);
#228=ORIENTED_EDGE('',*,*,#321,.F.);
#229=ORIENTED_EDGE('',*,*,#318,.T.);
#230=ORIENTED_EDGE('',*,*,#311,.T.);
#231=ORIENTED_EDGE('',*,*,#322,.F.);
#232=ORIENTED_EDGE('',*,*,#323,.T.);
#233=ORIENTED_EDGE('',*,*,#324,.F.);
#234=ORIENTED_EDGE('',*,*,#325,.F.);
#235=ORIENTED_EDGE('',*,*,#317,.F.);
#236=ORIENTED_EDGE('',*,*,#319,.F.);
#237=ORIENTED_EDGE('',*,*,#323,.F.);
#238=ORIENTED_EDGE('',*,*,#325,.T.);
#239=ORIENTED_EDGE('',*,*,#322,.T.);
#240=ORIENTED_EDGE('',*,*,#310,.T.);
#241=ORIENTED_EDGE('',*,*,#315,.F.);
#242=ORIENTED_EDGE('',*,*,#326,.T.);
#243=ORIENTED_EDGE('',*,*,#327,.T.);
#244=ORIENTED_EDGE('',*,*,#328,.T.);
#245=ORIENTED_EDGE('',*,*,#314,.T.);
#246=ORIENTED_EDGE('',*,*,#328,.F.);
#247=ORIENTED_EDGE('',*,*,#321,.T.);
#248=ORIENTED_EDGE('',*,*,#302,.F.);
#249=ORIENTED_EDGE('',*,*,#329,.T.);
#250=ORIENTED_EDGE('',*,*,#330,.T.);
#251=ORIENTED_EDGE('',*,*,#331,.T.);
#252=ORIENTED_EDGE('',*,*,#313,.T.);
#253=ORIENTED_EDGE('',*,*,#331,.F.);
#254=ORIENTED_EDGE('',*,*,#320,.T.);
#255=ORIENTED_EDGE('',*,*,#305,.F.);
#256=ORIENTED_EDGE('',*,*,#332,.T.);
#257=ORIENTED_EDGE('',*,*,#332,.F.);
#258=ORIENTED_EDGE('',*,*,#306,.F.);
#259=ORIENTED_EDGE('',*,*,#330,.F.);
#260=ORIENTED_EDGE('',*,*,#333,.T.);
#261=ORIENTED_EDGE('',*,*,#329,.F.);
#262=ORIENTED_EDGE('',*,*,#307,.F.);
#263=ORIENTED_EDGE('',*,*,#324,.T.);
#264=ORIENTED_EDGE('',*,*,#333,.F.);
#265=ORIENTED_EDGE('',*,*,#334,.T.);
#266=ORIENTED_EDGE('',*,*,#334,.F.);
#267=ORIENTED_EDGE('',*,*,#303,.F.);
#268=ORIENTED_EDGE('',*,*,#327,.F.);
#269=ORIENTED_EDGE('',*,*,#335,.T.);
#270=ORIENTED_EDGE('',*,*,#326,.F.);
#271=ORIENTED_EDGE('',*,*,#304,.F.);
#272=ORIENTED_EDGE('',*,*,#308,.T.);
#273=ORIENTED_EDGE('',*,*,#335,.F.);
#274=VERTEX_POINT('',#499);
#275=VERTEX_POINT('',#501);
#276=VERTEX_POINT('',#502);
#277=VERTEX_POINT('',#506);
#278=VERTEX_POINT('',#508);
#279=VERTEX_POINT('',#509);
#280=VERTEX_POINT('',#513);
#281=VERTEX_POINT('',#515);
#282=VERTEX_POINT('',#516);
#283=VERTEX_POINT('',#518);
#284=VERTEX_POINT('',#520);
#285=VERTEX_POINT('',#524);
#286=VERTEX_POINT('',#526);
#287=VERTEX_POINT('',#528);
#288=VERTEX_POINT('',#530);
#289=VERTEX_POINT('',#534);
#290=VERTEX_POINT('',#538);
#291=VERTEX_POINT('',#540);
#292=VERTEX_POINT('',#542);
#293=VERTEX_POINT('',#546);
#294=VERTEX_POINT('',#553);
#295=VERTEX_POINT('',#560);
#296=VERTEX_POINT('',#565);
#297=VERTEX_POINT('',#566);
#298=VERTEX_POINT('',#570);
#299=VERTEX_POINT('',#574);
#300=VERTEX_POINT('',#575);
#301=VERTEX_POINT('',#579);
#302=EDGE_CURVE('',#274,#274,#336,.T.);
#303=EDGE_CURVE('',#275,#276,#114,.T.);
#304=EDGE_CURVE('',#276,#275,#115,.T.);
#305=EDGE_CURVE('',#277,#277,#337,.T.);
#306=EDGE_CURVE('',#278,#279,#116,.T.);
#307=EDGE_CURVE('',#279,#278,#117,.T.);
#308=EDGE_CURVE('',#280,#280,#338,.T.);
#309=EDGE_CURVE('',#281,#282,#60,.T.);
#310=EDGE_CURVE('',#283,#281,#61,.T.);
#311=EDGE_CURVE('',#284,#283,#62,.T.);
#312=EDGE_CURVE('',#282,#284,#63,.T.);
#313=EDGE_CURVE('',#285,#285,#339,.T.);
#314=EDGE_CURVE('',#286,#286,#340,.T.);
#315=EDGE_CURVE('',#287,#281,#64,.T.);
#316=EDGE_CURVE('',#288,#282,#65,.T.);
#317=EDGE_CURVE('',#288,#287,#66,.T.);
#318=EDGE_CURVE('',#289,#284,#67,.T.);
#319=EDGE_CURVE('',#289,#288,#68,.T.);
#320=EDGE_CURVE('',#290,#290,#341,.T.);
#321=EDGE_CURVE('',#291,#291,#342,.T.);
#322=EDGE_CURVE('',#292,#283,#69,.T.);
#323=EDGE_CURVE('',#292,#289,#70,.T.);
#324=EDGE_CURVE('',#293,#293,#343,.T.);
#325=EDGE_CURVE('',#287,#292,#71,.T.);
#326=EDGE_CURVE('',#275,#276,#118,.T.);
#327=EDGE_CURVE('',#276,#275,#119,.T.);
#328=EDGE_CURVE('',#294,#294,#344,.T.);
#329=EDGE_CURVE('',#278,#279,#120,.T.);
#330=EDGE_CURVE('',#279,#278,#121,.T.);
#331=EDGE_CURVE('',#295,#295,#345,.T.);
#332=EDGE_CURVE('',#296,#296,#346,.T.);
#333=EDGE_CURVE('',#298,#298,#347,.T.);
#334=EDGE_CURVE('',#299,#299,#348,.T.);
#335=EDGE_CURVE('',#301,#301,#349,.T.);
#336=CIRCLE('',#351,1.);
#337=CIRCLE('',#355,1.);
#338=CIRCLE('',#359,1.25);
#339=CIRCLE('',#361,1.25);
#340=CIRCLE('',#362,1.25);
#341=CIRCLE('',#365,1.25);
#342=CIRCLE('',#366,1.25);
#343=CIRCLE('',#368,1.25);
#344=CIRCLE('',#373,1.);
#345=CIRCLE('',#379,1.);
#346=CIRCLE('',#383,1.);
#347=CIRCLE('',#386,1.);
#348=CIRCLE('',#389,1.);
#349=CIRCLE('',#392,1.);
#350=AXIS2_PLACEMENT_3D('',#497,#395,#396);
#351=AXIS2_PLACEMENT_3D('',#498,#397,#398);
#352=AXIS2_PLACEMENT_3D('',#500,#399,#400);
#353=AXIS2_PLACEMENT_3D('',#503,#401,#402);
#354=AXIS2_PLACEMENT_3D('',#504,#403,#404);
#355=AXIS2_PLACEMENT_3D('',#505,#405,#406);
#356=AXIS2_PLACEMENT_3D('',#507,#407,#408);
#357=AXIS2_PLACEMENT_3D('',#510,#409,#410);
#358=AXIS2_PLACEMENT_3D('',#511,#411,#412);
#359=AXIS2_PLACEMENT_3D('',#512,#413,#414);
#360=AXIS2_PLACEMENT_3D('',#522,#419,#420);
#361=AXIS2_PLACEMENT_3D('',#523,#421,#422);
#362=AXIS2_PLACEMENT_3D('',#525,#423,#424);
#363=AXIS2_PLACEMENT_3D('',#532,#428,#429);
#364=AXIS2_PLACEMENT_3D('',#536,#432,#433);
#365=AXIS2_PLACEMENT_3D('',#537,#434,#435);
#366=AXIS2_PLACEMENT_3D('',#539,#436,#437);
#367=AXIS2_PLACEMENT_3D('',#544,#440,#441);
#368=AXIS2_PLACEMENT_3D('',#545,#442,#443);
#369=AXIS2_PLACEMENT_3D('',#548,#445,#446);
#370=AXIS2_PLACEMENT_3D('',#549,#447,#448);
#371=AXIS2_PLACEMENT_3D('',#550,#449,#450);
#372=AXIS2_PLACEMENT_3D('',#551,#451,#452);
#373=AXIS2_PLACEMENT_3D('',#552,#453,#454);
#374=AXIS2_PLACEMENT_3D('',#554,#455,#456);
#375=AXIS2_PLACEMENT_3D('',#555,#457,#458);
#376=AXIS2_PLACEMENT_3D('',#556,#459,#460);
#377=AXIS2_PLACEMENT_3D('',#557,#461,#462);
#378=AXIS2_PLACEMENT_3D('',#558,#463,#464);
#379=AXIS2_PLACEMENT_3D('',#559,#465,#466);
#380=AXIS2_PLACEMENT_3D('',#561,#467,#468);
#381=AXIS2_PLACEMENT_3D('',#562,#469,#470);
#382=AXIS2_PLACEMENT_3D('',#563,#471,#472);
#383=AXIS2_PLACEMENT_3D('',#564,#473,#474);
#384=AXIS2_PLACEMENT_3D('',#567,#475,#476);
#385=AXIS2_PLACEMENT_3D('',#568,#477,#478);
#386=AXIS2_PLACEMENT_3D('',#569,#479,#480);
#387=AXIS2_PLACEMENT_3D('',#571,#481,#482);
#388=AXIS2_PLACEMENT_3D('',#572,#483,#484);
#389=AXIS2_PLACEMENT_3D('',#573,#485,#486);
#390=AXIS2_PLACEMENT_3D('',#576,#487,#488);
#391=AXIS2_PLACEMENT_3D('',#577,#489,#490);
#392=AXIS2_PLACEMENT_3D('',#578,#491,#492);
#393=AXIS2_PLACEMENT_3D('',#580,#493,#494);
#394=AXIS2_PLACEMENT_3D('',#581,#495,#496);
#395=DIRECTION('',(0.,0.,1.));
#396=DIRECTION('',(1.,0.,0.));
#397=DIRECTION('',(0.,1.,0.));
#398=DIRECTION('',(0.,0.,1.));
#399=DIRECTION('',(0.,-0.707106781186547,-0.707106781186547));
#400=DIRECTION('',(0.,0.707106781186547,-0.707106781186547));
#401=DIRECTION('',(0.,-0.707106781186547,0.707106781186547));
#402=DIRECTION('',(0.,0.707106781186547,0.707106781186547));
#403=DIRECTION('',(0.,1.,0.));
#404=DIRECTION('',(0.,0.,1.));
#405=DIRECTION('',(0.,1.,0.));
#406=DIRECTION('',(0.,0.,1.));
#407=DIRECTION('',(0.,-0.707106781186547,0.707106781186547));
#408=DIRECTION('',(0.,0.707106781186547,0.707106781186547));
#409=DIRECTION('',(0.,-0.707106781186547,-0.707106781186547));
#410=DIRECTION('',(0.,0.707106781186547,-0.707106781186547));
#411=DIRECTION('',(0.,1.,0.));
#412=DIRECTION('',(0.,0.,1.));
#413=DIRECTION('',(0.,0.,1.));
#414=DIRECTION('',(1.,0.,0.));
#415=DIRECTION('',(-1.,0.,0.));
#416=DIRECTION('',(0.,-1.,0.));
#417=DIRECTION('',(1.,0.,0.));
#418=DIRECTION('',(0.,1.,0.));
#419=DIRECTION('',(0.,0.,1.));
#420=DIRECTION('',(1.,0.,0.));
#421=DIRECTION('',(0.,-1.,0.));
#422=DIRECTION('',(0.,0.,-1.));
#423=DIRECTION('',(0.,-1.,0.));
#424=DIRECTION('',(0.,0.,-1.));
#425=DIRECTION('',(0.,0.,1.));
#426=DIRECTION('',(0.,0.,1.));
#427=DIRECTION('',(1.,0.,0.));
#428=DIRECTION('',(0.,-1.,0.));
#429=DIRECTION('',(0.,0.,-1.));
#430=DIRECTION('',(0.,0.,1.));
#431=DIRECTION('',(0.,-1.,0.));
#432=DIRECTION('',(-1.,0.,0.));
#433=DIRECTION('',(0.,0.,1.));
#434=DIRECTION('',(0.,1.,0.));
#435=DIRECTION('',(0.,0.,1.));
#436=DIRECTION('',(0.,1.,0.));
#437=DIRECTION('',(0.,0.,1.));
#438=DIRECTION('',(0.,0.,1.));
#439=DIRECTION('',(-1.,0.,0.));
#440=DIRECTION('',(0.,1.,0.));
#441=DIRECTION('',(0.,0.,1.));
#442=DIRECTION('',(0.,0.,-1.));
#443=DIRECTION('',(-1.,0.,0.));
#444=DIRECTION('',(0.,1.,0.));
#445=DIRECTION('',(0.,0.,-1.));
#446=DIRECTION('',(-1.,0.,0.));
#447=DIRECTION('',(1.,0.,0.));
#448=DIRECTION('',(0.,0.,-1.));
#449=DIRECTION('',(0.,0.707106781186547,0.707106781186547));
#450=DIRECTION('',(0.,0.707106781186547,-0.707106781186547));
#451=DIRECTION('',(0.,0.707106781186547,-0.707106781186547));
#452=DIRECTION('',(0.,0.707106781186547,0.707106781186547));
#453=DIRECTION('',(0.,-1.,0.));
#454=DIRECTION('',(0.,0.,-1.));
#455=DIRECTION('',(0.,1.,0.));
#456=DIRECTION('',(0.,0.,1.));
#457=DIRECTION('',(0.,-1.,0.));
#458=DIRECTION('',(-1.,-2.81892564846232E-17,0.));
#459=DIRECTION('',(0.,1.,0.));
#460=DIRECTION('',(1.,3.6429192995513E-17,0.));
#461=DIRECTION('',(0.,0.707106781186547,-0.707106781186547));
#462=DIRECTION('',(0.,0.707106781186547,0.707106781186547));
#463=DIRECTION('',(0.,0.707106781186547,0.707106781186547));
#464=DIRECTION('',(0.,0.707106781186547,-0.707106781186547));
#465=DIRECTION('',(0.,-1.,0.));
#466=DIRECTION('',(0.,0.,-1.));
#467=DIRECTION('',(0.,1.,0.));
#468=DIRECTION('',(0.,0.,1.));
#469=DIRECTION('',(0.,-1.,0.));
#470=DIRECTION('',(-1.,-2.81892564846232E-17,0.));
#471=DIRECTION('',(0.,1.,0.));
#472=DIRECTION('',(1.,3.6429192995513E-17,0.));
#473=DIRECTION('',(0.,0.,-1.));
#474=DIRECTION('',(1.,0.,0.));
#475=DIRECTION('',(0.,0.,-1.));
#476=DIRECTION('',(-1.,0.,2.60425276111652E-18));
#477=DIRECTION('',(0.,0.,1.));
#478=DIRECTION('',(1.,0.,0.));
#479=DIRECTION('',(0.,0.,-1.));
#480=DIRECTION('',(-1.,0.,0.));
#481=DIRECTION('',(0.,0.,1.));
#482=DIRECTION('',(1.,0.,0.));
#483=DIRECTION('',(0.,0.,-1.));
#484=DIRECTION('',(-1.,0.,7.80625564189564E-17));
#485=DIRECTION('',(0.,0.,1.));
#486=DIRECTION('',(-1.,0.,0.));
#487=DIRECTION('',(0.,0.,1.));
#488=DIRECTION('',(1.,0.,-5.41684574312235E-17));
#489=DIRECTION('',(0.,0.,-1.));
#490=DIRECTION('',(-1.,0.,0.));
#491=DIRECTION('',(0.,0.,1.));
#492=DIRECTION('',(1.,0.,0.));
#493=DIRECTION('',(0.,0.,-1.));
#494=DIRECTION('',(-1.,0.,0.));
#495=DIRECTION('',(0.,0.,1.));
#496=DIRECTION('',(1.,0.,-5.89805981832115E-17));
#497=CARTESIAN_POINT('',(0.,0.,0.));
#498=CARTESIAN_POINT('',(5.,9.75,23.5));
#499=CARTESIAN_POINT('',(5.,9.75,24.5));
#500=CARTESIAN_POINT('',(5.,5.,23.5));
#501=CARTESIAN_POINT('',(4.,5.,23.5));
#502=CARTESIAN_POINT('',(6.,5.,23.5));
#503=CARTESIAN_POINT('',(5.,5.,23.5));
#504=CARTESIAN_POINT('',(5.,0.,23.5));
#505=CARTESIAN_POINT('',(5.,9.75,2.5));
#506=CARTESIAN_POINT('',(5.,9.75,3.5));
#507=CARTESIAN_POINT('',(5.,5.,2.5));
#508=CARTESIAN_POINT('',(6.,5.,2.5));
#509=CARTESIAN_POINT('',(4.,5.,2.5));
#510=CARTESIAN_POINT('',(5.,5.,2.5));
#511=CARTESIAN_POINT('',(5.,0.,2.5));
#512=CARTESIAN_POINT('',(5.,5.,31.));
#513=CARTESIAN_POINT('',(6.25,5.,31.));
#514=CARTESIAN_POINT('',(5.,0.,31.));
#515=CARTESIAN_POINT('',(10.,0.,31.));
#516=CARTESIAN_POINT('',(0.,0.,31.));
#517=CARTESIAN_POINT('',(10.,5.,31.));
#518=CARTESIAN_POINT('',(10.,10.,31.));
#519=CARTESIAN_POINT('',(5.,10.,31.));
#520=CARTESIAN_POINT('',(0.,10.,31.));
#521=CARTESIAN_POINT('',(0.,5.,31.));
#522=CARTESIAN_POINT('',(5.,5.,31.));
#523=CARTESIAN_POINT('',(5.,0.,2.5));
#524=CARTESIAN_POINT('',(5.,0.,1.25));
#525=CARTESIAN_POINT('',(5.,0.,23.5));
#526=CARTESIAN_POINT('',(5.,0.,22.25));
#527=CARTESIAN_POINT('',(10.,0.,0.));
#528=CARTESIAN_POINT('',(10.,0.,-5.));
#529=CARTESIAN_POINT('',(0.,0.,0.));
#530=CARTESIAN_POINT('',(0.,0.,-5.));
#531=CARTESIAN_POINT('',(5.,0.,-5.));
#532=CARTESIAN_POINT('',(5.,0.,0.));
#533=CARTESIAN_POINT('',(0.,10.,0.));
#534=CARTESIAN_POINT('',(0.,10.,-5.));
#535=CARTESIAN_POINT('',(0.,5.,-5.));
#536=CARTESIAN_POINT('',(0.,5.,0.));
#537=CARTESIAN_POINT('',(5.,10.,2.5));
#538=CARTESIAN_POINT('',(5.,10.,3.75));
#539=CARTESIAN_POINT('',(5.,10.,23.5));
#540=CARTESIAN_POINT('',(5.,10.,24.75));
#541=CARTESIAN_POINT('',(10.,10.,0.));
#542=CARTESIAN_POINT('',(10.,10.,-5.));
#543=CARTESIAN_POINT('',(5.,10.,-5.));
#544=CARTESIAN_POINT('',(5.,10.,0.));
#545=CARTESIAN_POINT('',(5.,5.,-5.));
#546=CARTESIAN_POINT('',(3.75,5.,-5.));
#547=CARTESIAN_POINT('',(10.,5.,-5.));
#548=CARTESIAN_POINT('',(5.,5.,-5.));
#549=CARTESIAN_POINT('',(10.,5.,0.));
#550=CARTESIAN_POINT('',(5.,5.,23.5));
#551=CARTESIAN_POINT('',(5.,5.,23.5));
#552=CARTESIAN_POINT('',(5.,0.25,23.5));
#553=CARTESIAN_POINT('',(5.,0.25,22.5));
#554=CARTESIAN_POINT('',(5.,0.,23.5));
#555=CARTESIAN_POINT('',(5.,1.25,23.5));
#556=CARTESIAN_POINT('',(5.,8.75,23.5));
#557=CARTESIAN_POINT('',(5.,5.,2.5));
#558=CARTESIAN_POINT('',(5.,5.,2.5));
#559=CARTESIAN_POINT('',(5.,0.25,2.5));
#560=CARTESIAN_POINT('',(5.,0.25,1.5));
#561=CARTESIAN_POINT('',(5.,0.,2.5));
#562=CARTESIAN_POINT('',(5.,1.25,2.5));
#563=CARTESIAN_POINT('',(5.,8.75,2.5));
#564=CARTESIAN_POINT('',(5.,5.,5.));
#565=CARTESIAN_POINT('',(6.,5.,5.));
#566=CARTESIAN_POINT('',(5.,5.,5.60086061902756));
#567=CARTESIAN_POINT('',(5.,5.,5.));
#568=CARTESIAN_POINT('',(5.,5.,-5.));
#569=CARTESIAN_POINT('',(5.,5.,-4.75));
#570=CARTESIAN_POINT('',(4.,5.,-4.75));
#571=CARTESIAN_POINT('',(5.,5.,-5.));
#572=CARTESIAN_POINT('',(5.,5.,-3.75));
#573=CARTESIAN_POINT('',(5.,5.,21.));
#574=CARTESIAN_POINT('',(4.,5.,21.));
#575=CARTESIAN_POINT('',(5.,5.,20.3991393809724));
#576=CARTESIAN_POINT('',(5.,5.,21.));
#577=CARTESIAN_POINT('',(5.,5.,31.));
#578=CARTESIAN_POINT('',(5.,5.,30.75));
#579=CARTESIAN_POINT('',(6.,5.,30.75));
#580=CARTESIAN_POINT('',(5.,5.,31.));
#581=CARTESIAN_POINT('',(5.,5.,29.75));
#582=MECHANICAL_DESIGN_GEOMETRIC_PRESENTATION_REPRESENTATION('',(#32),#583);
#583=(
GEOMETRIC_REPRESENTATION_CONTEXT(3)
GLOBAL_UNCERTAINTY_ASSIGNED_CONTEXT((#584))
GLOBAL_UNIT_ASSIGNED_CONTEXT((#590,#586,#585))
REPRESENTATION_CONTEXT('Aladdin_00287_06_v2','TOP_LEVEL_ASSEMBLY_PART')
);
#584=UNCERTAINTY_MEASURE_WITH_UNIT(LENGTH_MEASURE(2.E-5),#590,
'DISTANCE_ACCURACY_VALUE','Maximum Tolerance applied to model');
#585=(
NAMED_UNIT(*)
SI_UNIT($,.STERADIAN.)
SOLID_ANGLE_UNIT()
);
#586=(
CONVERSION_BASED_UNIT('DEGREE',#588)
NAMED_UNIT(#587)
PLANE_ANGLE_UNIT()
);
#587=DIMENSIONAL_EXPONENTS(0.,0.,0.,0.,0.,0.,0.);
#588=PLANE_ANGLE_MEASURE_WITH_UNIT(PLANE_ANGLE_MEASURE(0.0174532925),#589);
#589=(
NAMED_UNIT(*)
PLANE_ANGLE_UNIT()
SI_UNIT($,.RADIAN.)
);
#590=(
LENGTH_UNIT()
NAMED_UNIT(*)
SI_UNIT(.MILLI.,.METRE.)
);
ENDSEC;
END-ISO-10303-21;
