ISO-10303-21;
HEADER;
/* Generated by software containing ST-Developer
 * from STEP Tools, Inc. (www.steptools.com) 
 */
/* OPTION: using custom schema-name function */

FILE_DESCRIPTION(
/* description */ (''),
/* implementation_level */ '2;1');

FILE_NAME(
/* name */ 'Aladdin_00502.stp',
/* time_stamp */ '2025-07-02T12:50:34+02:00',
/* author */ (''),
/* organization */ (''),
/* preprocessor_version */ 'ST-DEVELOPER v19.4',
/* originating_system */ 'SIEMENS PLM Software NX2306.9102',
/* authorisation */ '');

FILE_SCHEMA (('AUTOMOTIVE_DESIGN { 1 0 10303 214 3 1 1 1 }'));
ENDSEC;

DATA;
#10=PROPERTY_DEFINITION_REPRESENTATION(#14,#12);
#11=PROPERTY_DEFINITION_REPRESENTATION(#15,#13);
#12=REPRESENTATION('',(#16),#127);
#13=REPRESENTATION('',(#17),#127);
#14=PROPERTY_DEFINITION('pmi validation property','',#21);
#15=PROPERTY_DEFINITION('pmi validation property','',#21);
#16=VALUE_REPRESENTATION_ITEM('number of annotations',COUNT_MEASURE(0.));
#17=VALUE_REPRESENTATION_ITEM('number of views',COUNT_MEASURE(0.));
#18=SHAPE_REPRESENTATION_RELATIONSHIP('None',
'relationship between IR3_00000502_objects-None and IR3_00000502_objec
ts-None',#30,#19);
#19=ADVANCED_BREP_SHAPE_REPRESENTATION('IR3_00000502_objects-None',(#40),
#127);
#20=SHAPE_DEFINITION_REPRESENTATION(#21,#30);
#21=PRODUCT_DEFINITION_SHAPE('','',#22);
#22=PRODUCT_DEFINITION(' ','',#24,#23);
#23=PRODUCT_DEFINITION_CONTEXT('part definition',#29,'design');
#24=PRODUCT_DEFINITION_FORMATION_WITH_SPECIFIED_SOURCE(' ',' ',#26,
 .NOT_KNOWN.);
#25=PRODUCT_RELATED_PRODUCT_CATEGORY('part','',(#26));
#26=PRODUCT('IR3_00000502_objects','IR3_00000502_objects',' ',(#27));
#27=PRODUCT_CONTEXT(' ',#29,'mechanical');
#28=APPLICATION_PROTOCOL_DEFINITION('international standard',
'automotive_design',2010,#29);
#29=APPLICATION_CONTEXT(
'core data for automotive mechanical design processes');
#30=SHAPE_REPRESENTATION('IR3_00000502_objects-None',(#86),#127);
#31=PRESENTATION_LAYER_ASSIGNMENT('1','Layer 1',(#40));
#32=STYLED_ITEM('',(#33),#40);
#33=PRESENTATION_STYLE_ASSIGNMENT((#34));
#34=SURFACE_STYLE_USAGE(.BOTH.,#35);
#35=SURFACE_SIDE_STYLE('',(#36));
#36=SURFACE_STYLE_FILL_AREA(#37);
#37=FILL_AREA_STYLE('',(#38));
#38=FILL_AREA_STYLE_COLOUR('',#39);
#39=COLOUR_RGB('iron gray',0.298039215686275,0.298039215686275,0.298039215686275);
#40=MANIFOLD_SOLID_BREP('',#41);
#41=CLOSED_SHELL('',(#44,#45,#46,#47));
#42=PLANE('',#93);
#43=PLANE('',#94);
#44=ADVANCED_FACE('',(#50,#51),#48,.T.);
#45=ADVANCED_FACE('',(#52,#53),#49,.F.);
#46=ADVANCED_FACE('',(#54,#55),#42,.T.);
#47=ADVANCED_FACE('',(#56,#57),#43,.F.);
#48=CYLINDRICAL_SURFACE('',#89,6.);
#49=CYLINDRICAL_SURFACE('',#92,2.6000000000001);
#50=FACE_BOUND('',#58,.T.);
#51=FACE_BOUND('',#59,.T.);
#52=FACE_BOUND('',#60,.T.);
#53=FACE_BOUND('',#61,.T.);
#54=FACE_BOUND('',#62,.T.);
#55=FACE_BOUND('',#63,.T.);
#56=FACE_BOUND('',#64,.T.);
#57=FACE_BOUND('',#65,.T.);
#58=EDGE_LOOP('',(#66));
#59=EDGE_LOOP('',(#67));
#60=EDGE_LOOP('',(#68));
#61=EDGE_LOOP('',(#69));
#62=EDGE_LOOP('',(#70));
#63=EDGE_LOOP('',(#71));
#64=EDGE_LOOP('',(#72));
#65=EDGE_LOOP('',(#73));
#66=ORIENTED_EDGE('',*,*,#78,.F.);
#67=ORIENTED_EDGE('',*,*,#79,.T.);
#68=ORIENTED_EDGE('',*,*,#80,.T.);
#69=ORIENTED_EDGE('',*,*,#81,.F.);
#70=ORIENTED_EDGE('',*,*,#78,.T.);
#71=ORIENTED_EDGE('',*,*,#80,.F.);
#72=ORIENTED_EDGE('',*,*,#79,.F.);
#73=ORIENTED_EDGE('',*,*,#81,.T.);
#74=VERTEX_POINT('',#115);
#75=VERTEX_POINT('',#117);
#76=VERTEX_POINT('',#120);
#77=VERTEX_POINT('',#122);
#78=EDGE_CURVE('',#74,#74,#82,.T.);
#79=EDGE_CURVE('',#75,#75,#83,.T.);
#80=EDGE_CURVE('',#76,#76,#84,.T.);
#81=EDGE_CURVE('',#77,#77,#85,.T.);
#82=CIRCLE('',#87,6.);
#83=CIRCLE('',#88,6.);
#84=CIRCLE('',#90,2.6000000000001);
#85=CIRCLE('',#91,2.6000000000001);
#86=AXIS2_PLACEMENT_3D('',#113,#95,#96);
#87=AXIS2_PLACEMENT_3D('',#114,#97,#98);
#88=AXIS2_PLACEMENT_3D('',#116,#99,#100);
#89=AXIS2_PLACEMENT_3D('',#118,#101,#102);
#90=AXIS2_PLACEMENT_3D('',#119,#103,#104);
#91=AXIS2_PLACEMENT_3D('',#121,#105,#106);
#92=AXIS2_PLACEMENT_3D('',#123,#107,#108);
#93=AXIS2_PLACEMENT_3D('',#124,#109,#110);
#94=AXIS2_PLACEMENT_3D('',#125,#111,#112);
#95=DIRECTION('',(0.,0.,1.));
#96=DIRECTION('',(1.,0.,0.));
#97=DIRECTION('',(0.,0.,1.));
#98=DIRECTION('',(1.,0.,0.));
#99=DIRECTION('',(0.,0.,1.));
#100=DIRECTION('',(1.,0.,0.));
#101=DIRECTION('',(0.,0.,-1.));
#102=DIRECTION('',(-1.,0.,0.));
#103=DIRECTION('',(0.,0.,1.));
#104=DIRECTION('',(1.,0.,0.));
#105=DIRECTION('',(0.,0.,1.));
#106=DIRECTION('',(1.,0.,0.));
#107=DIRECTION('',(0.,0.,-1.));
#108=DIRECTION('',(-1.,0.,0.));
#109=DIRECTION('',(0.,0.,1.));
#110=DIRECTION('',(1.,0.,0.));
#111=DIRECTION('',(0.,0.,1.));
#112=DIRECTION('',(1.,0.,0.));
#113=CARTESIAN_POINT('',(0.,0.,0.));
#114=CARTESIAN_POINT('',(0.,0.,12.));
#115=CARTESIAN_POINT('',(6.,0.,12.));
#116=CARTESIAN_POINT('',(0.,0.,0.));
#117=CARTESIAN_POINT('',(6.,0.,0.));
#118=CARTESIAN_POINT('',(0.,0.,12.));
#119=CARTESIAN_POINT('',(0.,0.,12.));
#120=CARTESIAN_POINT('',(2.6000000000001,0.,12.));
#121=CARTESIAN_POINT('',(0.,0.,0.));
#122=CARTESIAN_POINT('',(2.6000000000001,0.,0.));
#123=CARTESIAN_POINT('',(0.,0.,12.));
#124=CARTESIAN_POINT('',(0.,0.,12.));
#125=CARTESIAN_POINT('',(0.,0.,0.));
#126=MECHANICAL_DESIGN_GEOMETRIC_PRESENTATION_REPRESENTATION('',(#32),#127);
#127=(
GEOMETRIC_REPRESENTATION_CONTEXT(3)
GLOBAL_UNCERTAINTY_ASSIGNED_CONTEXT((#128))
GLOBAL_UNIT_ASSIGNED_CONTEXT((#134,#130,#129))
REPRESENTATION_CONTEXT('Aladdin_00502','TOP_LEVEL_ASSEMBLY_PART')
);
#128=UNCERTAINTY_MEASURE_WITH_UNIT(LENGTH_MEASURE(2.E-5),#134,
'DISTANCE_ACCURACY_VALUE','Maximum Tolerance applied to model');
#129=(
NAMED_UNIT(*)
SI_UNIT($,.STERADIAN.)
SOLID_ANGLE_UNIT()
);
#130=(
CONVERSION_BASED_UNIT('DEGREE',#132)
NAMED_UNIT(#131)
PLANE_ANGLE_UNIT()
);
#131=DIMENSIONAL_EXPONENTS(0.,0.,0.,0.,0.,0.,0.);
#132=PLANE_ANGLE_MEASURE_WITH_UNIT(PLANE_ANGLE_MEASURE(0.0174532925),#133);
#133=(
NAMED_UNIT(*)
PLANE_ANGLE_UNIT()
SI_UNIT($,.RADIAN.)
);
#134=(
LENGTH_UNIT()
NAMED_UNIT(*)
SI_UNIT(.MILLI.,.METRE.)
);
ENDSEC;
END-ISO-10303-21;
