ISO-10303-21;
HEADER;
/* Generated by software containing ST-Developer
 * from STEP Tools, Inc. (www.steptools.com) 
 */
/* OPTION: using custom schema-name function */

FILE_DESCRIPTION(
/* description */ (''),
/* implementation_level */ '2;1');

FILE_NAME(
/* name */ 'Aladdin_00287_10.stp',
/* time_stamp */ '2024-10-02T15:49:42+02:00',
/* author */ (''),
/* organization */ (''),
/* preprocessor_version */ 'ST-DEVELOPER v19.4',
/* originating_system */ 'SIEMENS PLM Software NX2306.9102',
/* authorisation */ '');

FILE_SCHEMA (('AUTOMOTIVE_DESIGN { 1 0 10303 214 3 1 1 1 }'));
ENDSEC;

DATA;
#10=PROPERTY_DEFINITION_REPRESENTATION(#14,#12);
#11=PROPERTY_DEFINITION_REPRESENTATION(#15,#13);
#12=REPRESENTATION('',(#16),#561);
#13=REPRESENTATION('',(#17),#561);
#14=PROPERTY_DEFINITION('pmi validation property','',#21);
#15=PROPERTY_DEFINITION('pmi validation property','',#21);
#16=VALUE_REPRESENTATION_ITEM('number of annotations',COUNT_MEASURE(0.));
#17=VALUE_REPRESENTATION_ITEM('number of views',COUNT_MEASURE(0.));
#18=SHAPE_REPRESENTATION_RELATIONSHIP('None',
'relationship between 00287_10_v2_objects-None and 00287_10_v2_objects
-None',#30,#19);
#19=ADVANCED_BREP_SHAPE_REPRESENTATION('00287_10_v2_objects-None',(#40),
#561);
#20=SHAPE_DEFINITION_REPRESENTATION(#21,#30);
#21=PRODUCT_DEFINITION_SHAPE('','',#22);
#22=PRODUCT_DEFINITION(' ','',#24,#23);
#23=PRODUCT_DEFINITION_CONTEXT('part definition',#29,'design');
#24=PRODUCT_DEFINITION_FORMATION_WITH_SPECIFIED_SOURCE(' ',' ',#26,
 .NOT_KNOWN.);
#25=PRODUCT_RELATED_PRODUCT_CATEGORY('part','',(#26));
#26=PRODUCT('00287_10_v2_objects','00287_10_v2_objects',' ',(#27));
#27=PRODUCT_CONTEXT(' ',#29,'mechanical');
#28=APPLICATION_PROTOCOL_DEFINITION('international standard',
'automotive_design',2010,#29);
#29=APPLICATION_CONTEXT(
'core data for automotive mechanical design processes');
#30=SHAPE_REPRESENTATION('00287_10_v2_objects-None',(#340),#561);
#31=PRESENTATION_LAYER_ASSIGNMENT('1','Layer 1',(#40));
#32=STYLED_ITEM('',(#33),#40);
#33=PRESENTATION_STYLE_ASSIGNMENT((#34));
#34=SURFACE_STYLE_USAGE(.BOTH.,#35);
#35=SURFACE_SIDE_STYLE('',(#36));
#36=SURFACE_STYLE_FILL_AREA(#37);
#37=FILL_AREA_STYLE('',(#38));
#38=FILL_AREA_STYLE_COLOUR('',#39);
#39=COLOUR_RGB('medium steel',0.611764705882353,0.658823529411765,0.670588235294118);
#40=MANIFOLD_SOLID_BREP('',#41);
#41=CLOSED_SHELL('',(#116,#117,#118,#119,#120,#121,#122,#123,#124,#125,
#126,#127,#128,#129,#130,#131,#132,#133,#134,#135,#136,#137));
#42=VERTEX_LOOP('',#282);
#43=CONICAL_SURFACE('',#359,0.,45.);
#44=CONICAL_SURFACE('',#360,0.,45.);
#45=CONICAL_SURFACE('',#364,0.,45.);
#46=CONICAL_SURFACE('',#365,0.,45.);
#47=CONICAL_SURFACE('',#369,0.,45.);
#48=CONICAL_SURFACE('',#370,0.,45.);
#49=CONICAL_SURFACE('',#372,0.,45.);
#50=CONICAL_SURFACE('',#374,1.65,59.);
#51=CYLINDRICAL_SURFACE('',#358,1.65);
#52=CYLINDRICAL_SURFACE('',#363,1.65);
#53=CYLINDRICAL_SURFACE('',#368,1.65);
#54=CYLINDRICAL_SURFACE('',#375,1.65);
#55=CYLINDRICAL_SURFACE('',#378,2.);
#56=CYLINDRICAL_SURFACE('',#381,2.);
#57=FACE_BOUND('',#153,.T.);
#58=FACE_BOUND('',#154,.T.);
#59=FACE_BOUND('',#155,.T.);
#60=FACE_BOUND('',#156,.T.);
#61=FACE_BOUND('',#158,.T.);
#62=FACE_BOUND('',#159,.T.);
#63=FACE_BOUND('',#160,.T.);
#64=FACE_BOUND('',#161,.T.);
#65=FACE_BOUND('',#162,.T.);
#66=FACE_BOUND('',#163,.T.);
#67=FACE_BOUND('',#164,.T.);
#68=FACE_BOUND('',#165,.T.);
#69=FACE_BOUND('',#166,.T.);
#70=FACE_BOUND('',#167,.T.);
#71=FACE_BOUND('',#168,.T.);
#72=FACE_BOUND('',#169,.T.);
#73=FACE_BOUND('',#170,.T.);
#74=FACE_BOUND('',#171,.T.);
#75=FACE_BOUND('',#172,.T.);
#76=FACE_BOUND('',#173,.T.);
#77=FACE_BOUND('',#174,.T.);
#78=FACE_BOUND('',#175,.T.);
#79=FACE_BOUND('',#176,.T.);
#80=FACE_BOUND('',#177,.T.);
#81=FACE_BOUND('',#178,.T.);
#82=FACE_BOUND('',#179,.T.);
#83=FACE_BOUND('',#180,.T.);
#84=FACE_BOUND('',#181,.T.);
#85=FACE_BOUND('',#182,.T.);
#86=FACE_BOUND('',#183,.T.);
#87=FACE_BOUND('',#184,.T.);
#88=FACE_BOUND('',#185,.T.);
#89=FACE_BOUND('',#186,.T.);
#90=FACE_BOUND('',#42,.T.);
#91=FACE_BOUND('',#187,.T.);
#92=FACE_BOUND('',#188,.T.);
#93=FACE_BOUND('',#190,.T.);
#94=FACE_BOUND('',#191,.T.);
#95=FACE_BOUND('',#193,.T.);
#96=FACE_BOUND('',#194,.T.);
#97=CIRCLE('',#343,2.);
#98=CIRCLE('',#344,2.);
#99=CIRCLE('',#345,1.99999999999997);
#100=CIRCLE('',#348,2.);
#101=CIRCLE('',#349,2.);
#102=CIRCLE('',#350,2.);
#103=CIRCLE('',#352,2.);
#104=CIRCLE('',#353,2.);
#105=CIRCLE('',#354,2.);
#106=CIRCLE('',#356,1.65);
#107=CIRCLE('',#357,1.65);
#108=CIRCLE('',#361,1.65);
#109=CIRCLE('',#362,1.65);
#110=CIRCLE('',#366,1.65);
#111=CIRCLE('',#367,1.65);
#112=CIRCLE('',#371,1.65);
#113=CIRCLE('',#373,1.65);
#114=CIRCLE('',#376,2.);
#115=CIRCLE('',#379,2.);
#116=ADVANCED_FACE('',(#146),#138,.T.);
#117=ADVANCED_FACE('',(#147),#139,.T.);
#118=ADVANCED_FACE('',(#57,#58,#59,#60),#140,.T.);
#119=ADVANCED_FACE('',(#148),#141,.T.);
#120=ADVANCED_FACE('',(#61,#62,#63,#64),#142,.F.);
#121=ADVANCED_FACE('',(#65,#66,#67,#68),#143,.T.);
#122=ADVANCED_FACE('',(#69,#70),#51,.F.);
#123=ADVANCED_FACE('',(#71,#72),#43,.F.);
#124=ADVANCED_FACE('',(#73,#74),#44,.F.);
#125=ADVANCED_FACE('',(#75,#76),#52,.F.);
#126=ADVANCED_FACE('',(#77,#78),#45,.F.);
#127=ADVANCED_FACE('',(#79,#80),#46,.F.);
#128=ADVANCED_FACE('',(#81,#82),#53,.F.);
#129=ADVANCED_FACE('',(#83,#84),#47,.F.);
#130=ADVANCED_FACE('',(#85,#86),#48,.F.);
#131=ADVANCED_FACE('',(#87,#88),#49,.F.);
#132=ADVANCED_FACE('',(#89,#90),#50,.F.);
#133=ADVANCED_FACE('',(#91,#92),#54,.F.);
#134=ADVANCED_FACE('',(#149),#144,.F.);
#135=ADVANCED_FACE('',(#93,#94),#55,.F.);
#136=ADVANCED_FACE('',(#150),#145,.F.);
#137=ADVANCED_FACE('',(#95,#96),#56,.F.);
#138=PLANE('',#341);
#139=PLANE('',#342);
#140=PLANE('',#346);
#141=PLANE('',#347);
#142=PLANE('',#351);
#143=PLANE('',#355);
#144=PLANE('',#377);
#145=PLANE('',#380);
#146=FACE_OUTER_BOUND('',#151,.T.);
#147=FACE_OUTER_BOUND('',#152,.T.);
#148=FACE_OUTER_BOUND('',#157,.T.);
#149=FACE_OUTER_BOUND('',#189,.T.);
#150=FACE_OUTER_BOUND('',#192,.T.);
#151=EDGE_LOOP('',(#195,#196,#197,#198));
#152=EDGE_LOOP('',(#199,#200,#201,#202));
#153=EDGE_LOOP('',(#203));
#154=EDGE_LOOP('',(#204));
#155=EDGE_LOOP('',(#205));
#156=EDGE_LOOP('',(#206,#207,#208,#209));
#157=EDGE_LOOP('',(#210,#211,#212,#213));
#158=EDGE_LOOP('',(#214));
#159=EDGE_LOOP('',(#215));
#160=EDGE_LOOP('',(#216));
#161=EDGE_LOOP('',(#217,#218,#219,#220));
#162=EDGE_LOOP('',(#221));
#163=EDGE_LOOP('',(#222));
#164=EDGE_LOOP('',(#223));
#165=EDGE_LOOP('',(#224,#225,#226,#227));
#166=EDGE_LOOP('',(#228));
#167=EDGE_LOOP('',(#229));
#168=EDGE_LOOP('',(#230));
#169=EDGE_LOOP('',(#231));
#170=EDGE_LOOP('',(#232));
#171=EDGE_LOOP('',(#233));
#172=EDGE_LOOP('',(#234));
#173=EDGE_LOOP('',(#235));
#174=EDGE_LOOP('',(#236));
#175=EDGE_LOOP('',(#237));
#176=EDGE_LOOP('',(#238));
#177=EDGE_LOOP('',(#239));
#178=EDGE_LOOP('',(#240));
#179=EDGE_LOOP('',(#241));
#180=EDGE_LOOP('',(#242));
#181=EDGE_LOOP('',(#243));
#182=EDGE_LOOP('',(#244));
#183=EDGE_LOOP('',(#245));
#184=EDGE_LOOP('',(#246));
#185=EDGE_LOOP('',(#247));
#186=EDGE_LOOP('',(#248));
#187=EDGE_LOOP('',(#249));
#188=EDGE_LOOP('',(#250));
#189=EDGE_LOOP('',(#251));
#190=EDGE_LOOP('',(#252));
#191=EDGE_LOOP('',(#253));
#192=EDGE_LOOP('',(#254));
#193=EDGE_LOOP('',(#255));
#194=EDGE_LOOP('',(#256));
#195=ORIENTED_EDGE('',*,*,#285,.F.);
#196=ORIENTED_EDGE('',*,*,#286,.F.);
#197=ORIENTED_EDGE('',*,*,#287,.T.);
#198=ORIENTED_EDGE('',*,*,#288,.T.);
#199=ORIENTED_EDGE('',*,*,#289,.F.);
#200=ORIENTED_EDGE('',*,*,#288,.F.);
#201=ORIENTED_EDGE('',*,*,#290,.T.);
#202=ORIENTED_EDGE('',*,*,#291,.T.);
#203=ORIENTED_EDGE('',*,*,#292,.F.);
#204=ORIENTED_EDGE('',*,*,#293,.F.);
#205=ORIENTED_EDGE('',*,*,#294,.F.);
#206=ORIENTED_EDGE('',*,*,#295,.F.);
#207=ORIENTED_EDGE('',*,*,#291,.F.);
#208=ORIENTED_EDGE('',*,*,#296,.T.);
#209=ORIENTED_EDGE('',*,*,#297,.T.);
#210=ORIENTED_EDGE('',*,*,#298,.F.);
#211=ORIENTED_EDGE('',*,*,#297,.F.);
#212=ORIENTED_EDGE('',*,*,#299,.T.);
#213=ORIENTED_EDGE('',*,*,#286,.T.);
#214=ORIENTED_EDGE('',*,*,#300,.T.);
#215=ORIENTED_EDGE('',*,*,#301,.T.);
#216=ORIENTED_EDGE('',*,*,#302,.T.);
#217=ORIENTED_EDGE('',*,*,#287,.F.);
#218=ORIENTED_EDGE('',*,*,#299,.F.);
#219=ORIENTED_EDGE('',*,*,#296,.F.);
#220=ORIENTED_EDGE('',*,*,#290,.F.);
#221=ORIENTED_EDGE('',*,*,#303,.F.);
#222=ORIENTED_EDGE('',*,*,#304,.F.);
#223=ORIENTED_EDGE('',*,*,#305,.F.);
#224=ORIENTED_EDGE('',*,*,#285,.T.);
#225=ORIENTED_EDGE('',*,*,#289,.T.);
#226=ORIENTED_EDGE('',*,*,#295,.T.);
#227=ORIENTED_EDGE('',*,*,#298,.T.);
#228=ORIENTED_EDGE('',*,*,#306,.T.);
#229=ORIENTED_EDGE('',*,*,#307,.T.);
#230=ORIENTED_EDGE('',*,*,#302,.F.);
#231=ORIENTED_EDGE('',*,*,#307,.F.);
#232=ORIENTED_EDGE('',*,*,#305,.T.);
#233=ORIENTED_EDGE('',*,*,#306,.F.);
#234=ORIENTED_EDGE('',*,*,#308,.T.);
#235=ORIENTED_EDGE('',*,*,#309,.T.);
#236=ORIENTED_EDGE('',*,*,#309,.F.);
#237=ORIENTED_EDGE('',*,*,#301,.F.);
#238=ORIENTED_EDGE('',*,*,#304,.T.);
#239=ORIENTED_EDGE('',*,*,#308,.F.);
#240=ORIENTED_EDGE('',*,*,#310,.T.);
#241=ORIENTED_EDGE('',*,*,#311,.T.);
#242=ORIENTED_EDGE('',*,*,#300,.F.);
#243=ORIENTED_EDGE('',*,*,#311,.F.);
#244=ORIENTED_EDGE('',*,*,#303,.T.);
#245=ORIENTED_EDGE('',*,*,#310,.F.);
#246=ORIENTED_EDGE('',*,*,#294,.T.);
#247=ORIENTED_EDGE('',*,*,#312,.F.);
#248=ORIENTED_EDGE('',*,*,#313,.T.);
#249=ORIENTED_EDGE('',*,*,#312,.T.);
#250=ORIENTED_EDGE('',*,*,#313,.F.);
#251=ORIENTED_EDGE('',*,*,#314,.T.);
#252=ORIENTED_EDGE('',*,*,#314,.F.);
#253=ORIENTED_EDGE('',*,*,#293,.T.);
#254=ORIENTED_EDGE('',*,*,#315,.T.);
#255=ORIENTED_EDGE('',*,*,#315,.F.);
#256=ORIENTED_EDGE('',*,*,#292,.T.);
#257=VERTEX_POINT('',#480);
#258=VERTEX_POINT('',#481);
#259=VERTEX_POINT('',#483);
#260=VERTEX_POINT('',#485);
#261=VERTEX_POINT('',#489);
#262=VERTEX_POINT('',#491);
#263=VERTEX_POINT('',#495);
#264=VERTEX_POINT('',#497);
#265=VERTEX_POINT('',#499);
#266=VERTEX_POINT('',#501);
#267=VERTEX_POINT('',#503);
#268=VERTEX_POINT('',#510);
#269=VERTEX_POINT('',#512);
#270=VERTEX_POINT('',#514);
#271=VERTEX_POINT('',#517);
#272=VERTEX_POINT('',#519);
#273=VERTEX_POINT('',#521);
#274=VERTEX_POINT('',#524);
#275=VERTEX_POINT('',#526);
#276=VERTEX_POINT('',#531);
#277=VERTEX_POINT('',#533);
#278=VERTEX_POINT('',#538);
#279=VERTEX_POINT('',#540);
#280=VERTEX_POINT('',#545);
#281=VERTEX_POINT('',#548);
#282=VERTEX_POINT('',#549);
#283=VERTEX_POINT('',#553);
#284=VERTEX_POINT('',#557);
#285=EDGE_CURVE('',#257,#258,#316,.T.);
#286=EDGE_CURVE('',#259,#257,#317,.T.);
#287=EDGE_CURVE('',#259,#260,#318,.T.);
#288=EDGE_CURVE('',#260,#258,#319,.T.);
#289=EDGE_CURVE('',#258,#261,#320,.T.);
#290=EDGE_CURVE('',#260,#262,#321,.T.);
#291=EDGE_CURVE('',#262,#261,#322,.T.);
#292=EDGE_CURVE('',#263,#263,#97,.T.);
#293=EDGE_CURVE('',#264,#264,#98,.T.);
#294=EDGE_CURVE('',#265,#265,#99,.T.);
#295=EDGE_CURVE('',#261,#266,#323,.T.);
#296=EDGE_CURVE('',#262,#267,#324,.T.);
#297=EDGE_CURVE('',#267,#266,#325,.T.);
#298=EDGE_CURVE('',#266,#257,#326,.T.);
#299=EDGE_CURVE('',#267,#259,#327,.T.);
#300=EDGE_CURVE('',#268,#268,#100,.T.);
#301=EDGE_CURVE('',#269,#269,#101,.T.);
#302=EDGE_CURVE('',#270,#270,#102,.T.);
#303=EDGE_CURVE('',#271,#271,#103,.T.);
#304=EDGE_CURVE('',#272,#272,#104,.T.);
#305=EDGE_CURVE('',#273,#273,#105,.T.);
#306=EDGE_CURVE('',#274,#274,#106,.T.);
#307=EDGE_CURVE('',#275,#275,#107,.T.);
#308=EDGE_CURVE('',#276,#276,#108,.T.);
#309=EDGE_CURVE('',#277,#277,#109,.T.);
#310=EDGE_CURVE('',#278,#278,#110,.T.);
#311=EDGE_CURVE('',#279,#279,#111,.T.);
#312=EDGE_CURVE('',#280,#280,#112,.T.);
#313=EDGE_CURVE('',#281,#281,#113,.T.);
#314=EDGE_CURVE('',#283,#283,#114,.T.);
#315=EDGE_CURVE('',#284,#284,#115,.T.);
#316=LINE('',#479,#328);
#317=LINE('',#482,#329);
#318=LINE('',#484,#330);
#319=LINE('',#486,#331);
#320=LINE('',#488,#332);
#321=LINE('',#490,#333);
#322=LINE('',#492,#334);
#323=LINE('',#500,#335);
#324=LINE('',#502,#336);
#325=LINE('',#504,#337);
#326=LINE('',#506,#338);
#327=LINE('',#507,#339);
#328=VECTOR('',#384,1.);
#329=VECTOR('',#385,1.);
#330=VECTOR('',#386,1.);
#331=VECTOR('',#387,1.);
#332=VECTOR('',#390,1.);
#333=VECTOR('',#391,1.);
#334=VECTOR('',#392,1.);
#335=VECTOR('',#401,1.);
#336=VECTOR('',#402,1.);
#337=VECTOR('',#403,1.);
#338=VECTOR('',#406,1.);
#339=VECTOR('',#407,1.);
#340=AXIS2_PLACEMENT_3D('',#478,#382,#383);
#341=AXIS2_PLACEMENT_3D('',#487,#388,#389);
#342=AXIS2_PLACEMENT_3D('',#493,#393,#394);
#343=AXIS2_PLACEMENT_3D('',#494,#395,#396);
#344=AXIS2_PLACEMENT_3D('',#496,#397,#398);
#345=AXIS2_PLACEMENT_3D('',#498,#399,#400);
#346=AXIS2_PLACEMENT_3D('',#505,#404,#405);
#347=AXIS2_PLACEMENT_3D('',#508,#408,#409);
#348=AXIS2_PLACEMENT_3D('',#509,#410,#411);
#349=AXIS2_PLACEMENT_3D('',#511,#412,#413);
#350=AXIS2_PLACEMENT_3D('',#513,#414,#415);
#351=AXIS2_PLACEMENT_3D('',#515,#416,#417);
#352=AXIS2_PLACEMENT_3D('',#516,#418,#419);
#353=AXIS2_PLACEMENT_3D('',#518,#420,#421);
#354=AXIS2_PLACEMENT_3D('',#520,#422,#423);
#355=AXIS2_PLACEMENT_3D('',#522,#424,#425);
#356=AXIS2_PLACEMENT_3D('',#523,#426,#427);
#357=AXIS2_PLACEMENT_3D('',#525,#428,#429);
#358=AXIS2_PLACEMENT_3D('',#527,#430,#431);
#359=AXIS2_PLACEMENT_3D('',#528,#432,#433);
#360=AXIS2_PLACEMENT_3D('',#529,#434,#435);
#361=AXIS2_PLACEMENT_3D('',#530,#436,#437);
#362=AXIS2_PLACEMENT_3D('',#532,#438,#439);
#363=AXIS2_PLACEMENT_3D('',#534,#440,#441);
#364=AXIS2_PLACEMENT_3D('',#535,#442,#443);
#365=AXIS2_PLACEMENT_3D('',#536,#444,#445);
#366=AXIS2_PLACEMENT_3D('',#537,#446,#447);
#367=AXIS2_PLACEMENT_3D('',#539,#448,#449);
#368=AXIS2_PLACEMENT_3D('',#541,#450,#451);
#369=AXIS2_PLACEMENT_3D('',#542,#452,#453);
#370=AXIS2_PLACEMENT_3D('',#543,#454,#455);
#371=AXIS2_PLACEMENT_3D('',#544,#456,#457);
#372=AXIS2_PLACEMENT_3D('',#546,#458,#459);
#373=AXIS2_PLACEMENT_3D('',#547,#460,#461);
#374=AXIS2_PLACEMENT_3D('',#550,#462,#463);
#375=AXIS2_PLACEMENT_3D('',#551,#464,#465);
#376=AXIS2_PLACEMENT_3D('',#552,#466,#467);
#377=AXIS2_PLACEMENT_3D('',#554,#468,#469);
#378=AXIS2_PLACEMENT_3D('',#555,#470,#471);
#379=AXIS2_PLACEMENT_3D('',#556,#472,#473);
#380=AXIS2_PLACEMENT_3D('',#558,#474,#475);
#381=AXIS2_PLACEMENT_3D('',#559,#476,#477);
#382=DIRECTION('',(0.,0.,1.));
#383=DIRECTION('',(1.,0.,0.));
#384=DIRECTION('',(1.,3.60737603567042E-16,0.));
#385=DIRECTION('',(0.,0.,-1.));
#386=DIRECTION('',(1.,3.60737603567042E-16,0.));
#387=DIRECTION('',(0.,0.,-1.));
#388=DIRECTION('',(-3.60737603567043E-16,1.,0.));
#389=DIRECTION('',(-1.,-3.60822483003176E-16,0.));
#390=DIRECTION('',(0.,-1.,0.));
#391=DIRECTION('',(0.,-1.,0.));
#392=DIRECTION('',(0.,0.,-1.));
#393=DIRECTION('',(1.,0.,0.));
#394=DIRECTION('',(0.,0.,-1.));
#395=DIRECTION('',(0.,-1.,0.));
#396=DIRECTION('',(0.,0.,1.));
#397=DIRECTION('',(0.,-1.,0.));
#398=DIRECTION('',(0.,0.,1.));
#399=DIRECTION('',(0.,-1.,0.));
#400=DIRECTION('',(0.,0.,-1.));
#401=DIRECTION('',(-1.,0.,0.));
#402=DIRECTION('',(-1.,0.,0.));
#403=DIRECTION('',(0.,0.,-1.));
#404=DIRECTION('',(0.,-1.,0.));
#405=DIRECTION('',(0.,0.,-1.));
#406=DIRECTION('',(-9.89137799311323E-17,1.,0.));
#407=DIRECTION('',(-9.89137799311323E-17,1.,0.));
#408=DIRECTION('',(-1.,-9.89137799311323E-17,0.));
#409=DIRECTION('',(9.89137799311323E-17,-1.,0.));
#410=DIRECTION('',(0.,0.,-1.));
#411=DIRECTION('',(-1.,0.,0.));
#412=DIRECTION('',(0.,0.,-1.));
#413=DIRECTION('',(-1.,0.,0.));
#414=DIRECTION('',(0.,0.,-1.));
#415=DIRECTION('',(-1.,0.,0.));
#416=DIRECTION('',(0.,0.,-1.));
#417=DIRECTION('',(-1.,0.,0.));
#418=DIRECTION('',(0.,0.,-1.));
#419=DIRECTION('',(-1.,0.,0.));
#420=DIRECTION('',(0.,0.,-1.));
#421=DIRECTION('',(-1.,0.,0.));
#422=DIRECTION('',(0.,0.,-1.));
#423=DIRECTION('',(-1.,0.,0.));
#424=DIRECTION('',(0.,0.,-1.));
#425=DIRECTION('',(-1.,0.,0.));
#426=DIRECTION('',(0.,0.,-1.));
#427=DIRECTION('',(-1.,0.,0.));
#428=DIRECTION('',(0.,0.,1.));
#429=DIRECTION('',(1.,0.,0.));
#430=DIRECTION('',(0.,0.,-1.));
#431=DIRECTION('',(-1.,0.,0.));
#432=DIRECTION('',(0.,0.,1.));
#433=DIRECTION('',(1.,0.,8.67361737988405E-19));
#434=DIRECTION('',(0.,0.,-1.));
#435=DIRECTION('',(-1.,0.,-1.04083408558609E-17));
#436=DIRECTION('',(0.,0.,-1.));
#437=DIRECTION('',(-0.999999999999999,0.,0.));
#438=DIRECTION('',(0.,0.,1.));
#439=DIRECTION('',(0.999999999999999,0.,0.));
#440=DIRECTION('',(0.,0.,-1.));
#441=DIRECTION('',(-0.999999999999999,0.,0.));
#442=DIRECTION('',(0.,0.,1.));
#443=DIRECTION('',(1.,0.,8.67361737988405E-19));
#444=DIRECTION('',(0.,0.,-1.));
#445=DIRECTION('',(-1.,0.,-1.04083408558609E-17));
#446=DIRECTION('',(0.,0.,-1.));
#447=DIRECTION('',(-0.999999999999999,0.,0.));
#448=DIRECTION('',(0.,0.,1.));
#449=DIRECTION('',(0.999999999999999,0.,0.));
#450=DIRECTION('',(0.,0.,-1.));
#451=DIRECTION('',(-0.999999999999999,0.,0.));
#452=DIRECTION('',(0.,0.,1.));
#453=DIRECTION('',(1.,0.,8.67361737988405E-19));
#454=DIRECTION('',(0.,0.,-1.));
#455=DIRECTION('',(-1.,0.,-1.04083408558609E-17));
#456=DIRECTION('',(0.,-1.,0.));
#457=DIRECTION('',(0.,0.,-1.));
#458=DIRECTION('',(0.,-1.,0.));
#459=DIRECTION('',(-1.,2.73218947466347E-17,0.));
#460=DIRECTION('',(0.,-1.,0.));
#461=DIRECTION('',(0.,0.,1.));
#462=DIRECTION('',(0.,-1.,0.));
#463=DIRECTION('',(0.,2.49910718698017E-17,-1.));
#464=DIRECTION('',(0.,1.,0.));
#465=DIRECTION('',(0.,0.,1.));
#466=DIRECTION('',(0.,-1.,0.));
#467=DIRECTION('',(0.,0.,1.));
#468=DIRECTION('',(0.,1.,0.));
#469=DIRECTION('',(0.,0.,1.));
#470=DIRECTION('',(0.,1.,0.));
#471=DIRECTION('',(0.,0.,1.));
#472=DIRECTION('',(0.,-1.,0.));
#473=DIRECTION('',(0.,0.,1.));
#474=DIRECTION('',(0.,1.,0.));
#475=DIRECTION('',(0.,0.,1.));
#476=DIRECTION('',(0.,1.,0.));
#477=DIRECTION('',(0.,0.,1.));
#478=CARTESIAN_POINT('',(0.,0.,0.));
#479=CARTESIAN_POINT('',(0.,25.9999999999999,-10.));
#480=CARTESIAN_POINT('',(0.,25.9999999999999,-10.));
#481=CARTESIAN_POINT('',(163.5,26.,-10.));
#482=CARTESIAN_POINT('',(0.,25.9999999999999,0.));
#483=CARTESIAN_POINT('',(0.,25.9999999999999,0.));
#484=CARTESIAN_POINT('',(0.,25.9999999999999,0.));
#485=CARTESIAN_POINT('',(163.5,26.,0.));
#486=CARTESIAN_POINT('',(163.5,26.,0.));
#487=CARTESIAN_POINT('',(0.,25.9999999999999,0.));
#488=CARTESIAN_POINT('',(163.5,26.,-10.));
#489=CARTESIAN_POINT('',(163.5,0.,-10.));
#490=CARTESIAN_POINT('',(163.5,26.,0.));
#491=CARTESIAN_POINT('',(163.5,0.,0.));
#492=CARTESIAN_POINT('',(163.5,0.,0.));
#493=CARTESIAN_POINT('',(163.5,26.,0.));
#494=CARTESIAN_POINT('',(157.5,-1.4210854715202E-14,-5.));
#495=CARTESIAN_POINT('',(157.5,-1.4210854715202E-14,-3.));
#496=CARTESIAN_POINT('',(127.5,-2.8421709430404E-14,-5.));
#497=CARTESIAN_POINT('',(127.5,-2.8421709430404E-14,-3.));
#498=CARTESIAN_POINT('',(142.5,0.,-5.));
#499=CARTESIAN_POINT('',(142.5,0.,-6.99999999999997));
#500=CARTESIAN_POINT('',(163.5,0.,-10.));
#501=CARTESIAN_POINT('',(0.,0.,-10.));
#502=CARTESIAN_POINT('',(163.5,0.,0.));
#503=CARTESIAN_POINT('',(0.,0.,0.));
#504=CARTESIAN_POINT('',(0.,0.,0.));
#505=CARTESIAN_POINT('',(163.5,0.,0.));
#506=CARTESIAN_POINT('',(0.,0.,-10.));
#507=CARTESIAN_POINT('',(0.,0.,0.));
#508=CARTESIAN_POINT('',(0.,0.,0.));
#509=CARTESIAN_POINT('',(72.9999999999993,19.9333580064181,0.));
#510=CARTESIAN_POINT('',(70.9999999999993,19.9333580064181,0.));
#511=CARTESIAN_POINT('',(36.,5.00000000000002,0.));
#512=CARTESIAN_POINT('',(34.,5.00000000000002,0.));
#513=CARTESIAN_POINT('',(6.,5.,0.));
#514=CARTESIAN_POINT('',(4.,5.,0.));
#515=CARTESIAN_POINT('',(0.,0.,0.));
#516=CARTESIAN_POINT('',(72.9999999999993,19.9333580064181,-10.));
#517=CARTESIAN_POINT('',(70.9999999999993,19.9333580064181,-10.));
#518=CARTESIAN_POINT('',(36.,5.00000000000002,-10.));
#519=CARTESIAN_POINT('',(34.,5.00000000000002,-10.));
#520=CARTESIAN_POINT('',(6.,5.,-10.));
#521=CARTESIAN_POINT('',(4.,5.,-10.));
#522=CARTESIAN_POINT('',(0.,0.,-10.));
#523=CARTESIAN_POINT('',(6.,5.,-9.65));
#524=CARTESIAN_POINT('',(4.35,5.,-9.65));
#525=CARTESIAN_POINT('',(6.,5.,-0.35));
#526=CARTESIAN_POINT('',(7.65,5.,-0.35));
#527=CARTESIAN_POINT('',(6.,5.,0.));
#528=CARTESIAN_POINT('',(6.,5.,-2.));
#529=CARTESIAN_POINT('',(6.,5.,-8.));
#530=CARTESIAN_POINT('',(36.,5.00000000000002,-9.65));
#531=CARTESIAN_POINT('',(34.35,5.00000000000002,-9.65));
#532=CARTESIAN_POINT('',(36.,5.00000000000002,-0.35));
#533=CARTESIAN_POINT('',(37.65,5.00000000000002,-0.35));
#534=CARTESIAN_POINT('',(36.,5.00000000000002,0.));
#535=CARTESIAN_POINT('',(36.,5.00000000000002,-2.));
#536=CARTESIAN_POINT('',(36.,5.00000000000002,-8.));
#537=CARTESIAN_POINT('',(72.9999999999993,19.9333580064181,-9.65));
#538=CARTESIAN_POINT('',(71.3499999999993,19.9333580064181,-9.65));
#539=CARTESIAN_POINT('',(72.9999999999993,19.9333580064181,-0.35));
#540=CARTESIAN_POINT('',(74.6499999999993,19.9333580064181,-0.35));
#541=CARTESIAN_POINT('',(72.9999999999993,19.9333580064181,0.));
#542=CARTESIAN_POINT('',(72.9999999999993,19.9333580064181,-2.));
#543=CARTESIAN_POINT('',(72.9999999999993,19.9333580064181,-8.));
#544=CARTESIAN_POINT('',(142.5,0.349999999999972,-5.));
#545=CARTESIAN_POINT('',(142.5,0.349999999999972,-6.65));
#546=CARTESIAN_POINT('',(142.5,1.99999999999997,-5.));
#547=CARTESIAN_POINT('',(142.5,15.,-5.));
#548=CARTESIAN_POINT('',(142.5,15.,-3.35));
#549=CARTESIAN_POINT('',(142.5,15.9914200213954,-5.));
#550=CARTESIAN_POINT('',(142.5,15.,-5.));
#551=CARTESIAN_POINT('',(142.5,-2.8421709430404E-14,-5.));
#552=CARTESIAN_POINT('',(127.5,7.99999999999997,-5.));
#553=CARTESIAN_POINT('',(127.5,7.99999999999997,-3.));
#554=CARTESIAN_POINT('',(127.5,7.99999999999997,-5.));
#555=CARTESIAN_POINT('',(127.5,-2.8421709430404E-14,-5.));
#556=CARTESIAN_POINT('',(157.5,7.99999999999999,-5.));
#557=CARTESIAN_POINT('',(157.5,7.99999999999999,-3.));
#558=CARTESIAN_POINT('',(157.5,7.99999999999999,-5.));
#559=CARTESIAN_POINT('',(157.5,-1.4210854715202E-14,-5.));
#560=MECHANICAL_DESIGN_GEOMETRIC_PRESENTATION_REPRESENTATION('',(#32),#561);
#561=(
GEOMETRIC_REPRESENTATION_CONTEXT(3)
GLOBAL_UNCERTAINTY_ASSIGNED_CONTEXT((#562))
GLOBAL_UNIT_ASSIGNED_CONTEXT((#568,#564,#563))
REPRESENTATION_CONTEXT('Aladdin_00287_10','TOP_LEVEL_ASSEMBLY_PART')
);
#562=UNCERTAINTY_MEASURE_WITH_UNIT(LENGTH_MEASURE(2.E-5),#568,
'DISTANCE_ACCURACY_VALUE','Maximum Tolerance applied to model');
#563=(
NAMED_UNIT(*)
SI_UNIT($,.STERADIAN.)
SOLID_ANGLE_UNIT()
);
#564=(
CONVERSION_BASED_UNIT('DEGREE',#566)
NAMED_UNIT(#565)
PLANE_ANGLE_UNIT()
);
#565=DIMENSIONAL_EXPONENTS(0.,0.,0.,0.,0.,0.,0.);
#566=PLANE_ANGLE_MEASURE_WITH_UNIT(PLANE_ANGLE_MEASURE(0.0174532925),#567);
#567=(
NAMED_UNIT(*)
PLANE_ANGLE_UNIT()
SI_UNIT($,.RADIAN.)
);
#568=(
LENGTH_UNIT()
NAMED_UNIT(*)
SI_UNIT(.MILLI.,.METRE.)
);
ENDSEC;
END-ISO-10303-21;
