ISO-10303-21;
HEADER;
/* Generated by software containing ST-Developer
 * from STEP Tools, Inc. (www.steptools.com) 
 */
/* OPTION: using custom schema-name function */

FILE_DESCRIPTION(
/* description */ (''),
/* implementation_level */ '2;1');

FILE_NAME(
/* name */ '190718_L support.stp',
/* time_stamp */ '2019-07-18T14:04:20+02:00',
/* author */ (''),
/* organization */ (''),
/* preprocessor_version */ 'ST-DEVELOPER v16.7',
/* originating_system */ 'SIEMENS PLM Software NX 12.0',
/* authorisation */ '');

FILE_SCHEMA (('AUTOMOTIVE_DESIGN { 1 0 10303 214 3 1 1 1 }'));
ENDSEC;

DATA;
#10=PROPERTY_DEFINITION_REPRESENTATION(#14,#12);
#11=PROPERTY_DEFINITION_REPRESENTATION(#15,#13);
#12=REPRESENTATION('',(#16),#656);
#13=REPRESENTATION('',(#17),#656);
#14=PROPERTY_DEFINITION('pmi validation property','',#21);
#15=PROPERTY_DEFINITION('pmi validation property','',#21);
#16=VALUE_REPRESENTATION_ITEM('number of annotations',COUNT_MEASURE(0.));
#17=VALUE_REPRESENTATION_ITEM('number of views',COUNT_MEASURE(0.));
#18=SHAPE_REPRESENTATION_RELATIONSHIP('None',
'relationship between bmas477C8C18u67j-None and bmas477C8C18u67j-None',
#30,#19);
#19=ADVANCED_BREP_SHAPE_REPRESENTATION('bmas477C8C18u67j-None',(#40),#656);
#20=SHAPE_DEFINITION_REPRESENTATION(#21,#30);
#21=PRODUCT_DEFINITION_SHAPE('','',#22);
#22=PRODUCT_DEFINITION(' ','',#24,#23);
#23=PRODUCT_DEFINITION_CONTEXT('part definition',#29,'design');
#24=PRODUCT_DEFINITION_FORMATION_WITH_SPECIFIED_SOURCE(' ',' ',#26,
 .NOT_KNOWN.);
#25=PRODUCT_RELATED_PRODUCT_CATEGORY('part','',(#26));
#26=PRODUCT('bmas477C8C18u67j','bmas477C8C18u67j',' ',(#27));
#27=PRODUCT_CONTEXT(' ',#29,'mechanical');
#28=APPLICATION_PROTOCOL_DEFINITION('international standard',
'automotive_design',2010,#29);
#29=APPLICATION_CONTEXT(
'core data for automotive mechanical design processes');
#30=SHAPE_REPRESENTATION('bmas477C8C18u67j-None',(#405),#656);
#31=PRESENTATION_LAYER_ASSIGNMENT('1','Layer 1',(#40));
#32=STYLED_ITEM('',(#33),#40);
#33=PRESENTATION_STYLE_ASSIGNMENT((#34));
#34=SURFACE_STYLE_USAGE(.BOTH.,#35);
#35=SURFACE_SIDE_STYLE('',(#36));
#36=SURFACE_STYLE_FILL_AREA(#37);
#37=FILL_AREA_STYLE('',(#38));
#38=FILL_AREA_STYLE_COLOUR('',#39);
#39=COLOUR_RGB('Strong Fuchsia',0.564705882352941,0.196063172350652,0.415686274509804);
#40=MANIFOLD_SOLID_BREP('',#41);
#41=CLOSED_SHELL('',(#61,#62,#63,#64,#65,#66,#67,#68,#69,#70,#71,#72,#73,
#74,#75,#76,#77,#78,#79,#80,#81));
#42=CONICAL_SURFACE('',#437,2.,60.);
#43=CONICAL_SURFACE('',#447,1.65,59.);
#44=VERTEX_LOOP('',#339);
#45=VERTEX_LOOP('',#341);
#46=CYLINDRICAL_SURFACE('',#434,1.5);
#47=CYLINDRICAL_SURFACE('',#435,3.1);
#48=CYLINDRICAL_SURFACE('',#438,2.);
#49=CYLINDRICAL_SURFACE('',#439,1.65);
#50=CYLINDRICAL_SURFACE('',#440,1.65);
#51=CYLINDRICAL_SURFACE('',#441,1.65);
#52=CYLINDRICAL_SURFACE('',#442,1.65);
#53=CYLINDRICAL_SURFACE('',#443,1.65);
#54=CYLINDRICAL_SURFACE('',#444,1.65);
#55=CYLINDRICAL_SURFACE('',#445,1.65);
#56=CYLINDRICAL_SURFACE('',#448,1.65);
#57=FACE_OUTER_BOUND('',#177,.T.);
#58=FACE_OUTER_BOUND('',#180,.T.);
#59=FACE_OUTER_BOUND('',#184,.T.);
#60=FACE_OUTER_BOUND('',#201,.T.);
#61=ADVANCED_FACE('',(#128,#129),#82,.F.);
#62=ADVANCED_FACE('',(#57),#83,.F.);
#63=ADVANCED_FACE('',(#130,#131),#84,.F.);
#64=ADVANCED_FACE('',(#58),#85,.F.);
#65=ADVANCED_FACE('',(#132,#133,#134),#86,.F.);
#66=ADVANCED_FACE('',(#59),#87,.F.);
#67=ADVANCED_FACE('',(#135,#136,#137,#138,#139,#140,#141,#142),#88,.T.);
#68=ADVANCED_FACE('',(#143,#144,#145,#146,#147,#148,#149,#150),#89,.F.);
#69=ADVANCED_FACE('',(#60),#46,.F.);
#70=ADVANCED_FACE('',(#151,#152),#47,.F.);
#71=ADVANCED_FACE('',(#153,#154),#42,.F.);
#72=ADVANCED_FACE('',(#155,#156),#48,.F.);
#73=ADVANCED_FACE('',(#157,#158),#49,.F.);
#74=ADVANCED_FACE('',(#159,#160),#50,.F.);
#75=ADVANCED_FACE('',(#161,#162),#51,.F.);
#76=ADVANCED_FACE('',(#163,#164),#52,.F.);
#77=ADVANCED_FACE('',(#165,#166),#53,.F.);
#78=ADVANCED_FACE('',(#167,#168),#54,.F.);
#79=ADVANCED_FACE('',(#169,#170),#55,.F.);
#80=ADVANCED_FACE('',(#171,#172),#43,.F.);
#81=ADVANCED_FACE('',(#173,#174),#56,.F.);
#82=PLANE('',#407);
#83=PLANE('',#408);
#84=PLANE('',#410);
#85=PLANE('',#411);
#86=PLANE('',#414);
#87=PLANE('',#415);
#88=PLANE('',#424);
#89=PLANE('',#433);
#90=LINE('',#559,#109);
#91=LINE('',#562,#110);
#92=LINE('',#564,#111);
#93=LINE('',#566,#112);
#94=LINE('',#568,#113);
#95=LINE('',#570,#114);
#96=LINE('',#572,#115);
#97=LINE('',#576,#116);
#98=LINE('',#579,#117);
#99=LINE('',#581,#118);
#100=LINE('',#583,#119);
#101=LINE('',#585,#120);
#102=LINE('',#587,#121);
#103=LINE('',#589,#122);
#104=LINE('',#595,#123);
#105=LINE('',#597,#124);
#106=LINE('',#599,#125);
#107=LINE('',#601,#126);
#108=LINE('',#602,#127);
#109=VECTOR('',#453,1.);
#110=VECTOR('',#454,1.);
#111=VECTOR('',#455,1.);
#112=VECTOR('',#456,1.);
#113=VECTOR('',#459,1.);
#114=VECTOR('',#460,1.);
#115=VECTOR('',#461,1.);
#116=VECTOR('',#466,1.);
#117=VECTOR('',#467,1.);
#118=VECTOR('',#468,1.);
#119=VECTOR('',#469,1.);
#120=VECTOR('',#472,1.);
#121=VECTOR('',#473,1.);
#122=VECTOR('',#474,1.);
#123=VECTOR('',#481,1.);
#124=VECTOR('',#482,1.);
#125=VECTOR('',#483,1.);
#126=VECTOR('',#486,1.);
#127=VECTOR('',#487,1.);
#128=FACE_BOUND('',#175,.T.);
#129=FACE_BOUND('',#176,.T.);
#130=FACE_BOUND('',#178,.T.);
#131=FACE_BOUND('',#179,.T.);
#132=FACE_BOUND('',#181,.T.);
#133=FACE_BOUND('',#182,.T.);
#134=FACE_BOUND('',#183,.T.);
#135=FACE_BOUND('',#185,.T.);
#136=FACE_BOUND('',#186,.T.);
#137=FACE_BOUND('',#187,.T.);
#138=FACE_BOUND('',#188,.T.);
#139=FACE_BOUND('',#189,.T.);
#140=FACE_BOUND('',#190,.T.);
#141=FACE_BOUND('',#191,.T.);
#142=FACE_BOUND('',#192,.T.);
#143=FACE_BOUND('',#193,.T.);
#144=FACE_BOUND('',#194,.T.);
#145=FACE_BOUND('',#195,.T.);
#146=FACE_BOUND('',#196,.T.);
#147=FACE_BOUND('',#197,.T.);
#148=FACE_BOUND('',#198,.T.);
#149=FACE_BOUND('',#199,.T.);
#150=FACE_BOUND('',#200,.T.);
#151=FACE_BOUND('',#202,.T.);
#152=FACE_BOUND('',#203,.T.);
#153=FACE_BOUND('',#204,.T.);
#154=FACE_BOUND('',#44,.T.);
#155=FACE_BOUND('',#205,.T.);
#156=FACE_BOUND('',#206,.T.);
#157=FACE_BOUND('',#207,.T.);
#158=FACE_BOUND('',#208,.T.);
#159=FACE_BOUND('',#209,.T.);
#160=FACE_BOUND('',#210,.T.);
#161=FACE_BOUND('',#211,.T.);
#162=FACE_BOUND('',#212,.T.);
#163=FACE_BOUND('',#213,.T.);
#164=FACE_BOUND('',#214,.T.);
#165=FACE_BOUND('',#215,.T.);
#166=FACE_BOUND('',#216,.T.);
#167=FACE_BOUND('',#217,.T.);
#168=FACE_BOUND('',#218,.T.);
#169=FACE_BOUND('',#219,.T.);
#170=FACE_BOUND('',#220,.T.);
#171=FACE_BOUND('',#221,.T.);
#172=FACE_BOUND('',#45,.T.);
#173=FACE_BOUND('',#222,.T.);
#174=FACE_BOUND('',#223,.T.);
#175=EDGE_LOOP('',(#224));
#176=EDGE_LOOP('',(#225,#226,#227,#228));
#177=EDGE_LOOP('',(#229,#230,#231,#232));
#178=EDGE_LOOP('',(#233));
#179=EDGE_LOOP('',(#234,#235,#236,#237));
#180=EDGE_LOOP('',(#238,#239,#240,#241));
#181=EDGE_LOOP('',(#242));
#182=EDGE_LOOP('',(#243));
#183=EDGE_LOOP('',(#244,#245,#246,#247));
#184=EDGE_LOOP('',(#248,#249,#250,#251));
#185=EDGE_LOOP('',(#252));
#186=EDGE_LOOP('',(#253));
#187=EDGE_LOOP('',(#254));
#188=EDGE_LOOP('',(#255));
#189=EDGE_LOOP('',(#256));
#190=EDGE_LOOP('',(#257));
#191=EDGE_LOOP('',(#258));
#192=EDGE_LOOP('',(#259,#260,#261,#262,#263,#264,#265));
#193=EDGE_LOOP('',(#266));
#194=EDGE_LOOP('',(#267));
#195=EDGE_LOOP('',(#268));
#196=EDGE_LOOP('',(#269));
#197=EDGE_LOOP('',(#270));
#198=EDGE_LOOP('',(#271));
#199=EDGE_LOOP('',(#272));
#200=EDGE_LOOP('',(#273,#274,#275,#276,#277,#278,#279));
#201=EDGE_LOOP('',(#280,#281,#282,#283));
#202=EDGE_LOOP('',(#284));
#203=EDGE_LOOP('',(#285));
#204=EDGE_LOOP('',(#286));
#205=EDGE_LOOP('',(#287));
#206=EDGE_LOOP('',(#288));
#207=EDGE_LOOP('',(#289));
#208=EDGE_LOOP('',(#290));
#209=EDGE_LOOP('',(#291));
#210=EDGE_LOOP('',(#292));
#211=EDGE_LOOP('',(#293));
#212=EDGE_LOOP('',(#294));
#213=EDGE_LOOP('',(#295));
#214=EDGE_LOOP('',(#296));
#215=EDGE_LOOP('',(#297));
#216=EDGE_LOOP('',(#298));
#217=EDGE_LOOP('',(#299));
#218=EDGE_LOOP('',(#300));
#219=EDGE_LOOP('',(#301));
#220=EDGE_LOOP('',(#302));
#221=EDGE_LOOP('',(#303));
#222=EDGE_LOOP('',(#304));
#223=EDGE_LOOP('',(#305));
#224=ORIENTED_EDGE('',*,*,#342,.T.);
#225=ORIENTED_EDGE('',*,*,#343,.T.);
#226=ORIENTED_EDGE('',*,*,#344,.F.);
#227=ORIENTED_EDGE('',*,*,#345,.F.);
#228=ORIENTED_EDGE('',*,*,#346,.T.);
#229=ORIENTED_EDGE('',*,*,#347,.T.);
#230=ORIENTED_EDGE('',*,*,#348,.T.);
#231=ORIENTED_EDGE('',*,*,#349,.F.);
#232=ORIENTED_EDGE('',*,*,#344,.T.);
#233=ORIENTED_EDGE('',*,*,#350,.T.);
#234=ORIENTED_EDGE('',*,*,#351,.F.);
#235=ORIENTED_EDGE('',*,*,#352,.T.);
#236=ORIENTED_EDGE('',*,*,#353,.T.);
#237=ORIENTED_EDGE('',*,*,#354,.F.);
#238=ORIENTED_EDGE('',*,*,#355,.T.);
#239=ORIENTED_EDGE('',*,*,#356,.F.);
#240=ORIENTED_EDGE('',*,*,#357,.F.);
#241=ORIENTED_EDGE('',*,*,#354,.T.);
#242=ORIENTED_EDGE('',*,*,#358,.T.);
#243=ORIENTED_EDGE('',*,*,#359,.T.);
#244=ORIENTED_EDGE('',*,*,#360,.T.);
#245=ORIENTED_EDGE('',*,*,#361,.F.);
#246=ORIENTED_EDGE('',*,*,#362,.F.);
#247=ORIENTED_EDGE('',*,*,#356,.T.);
#248=ORIENTED_EDGE('',*,*,#363,.T.);
#249=ORIENTED_EDGE('',*,*,#346,.F.);
#250=ORIENTED_EDGE('',*,*,#364,.F.);
#251=ORIENTED_EDGE('',*,*,#361,.T.);
#252=ORIENTED_EDGE('',*,*,#365,.T.);
#253=ORIENTED_EDGE('',*,*,#366,.T.);
#254=ORIENTED_EDGE('',*,*,#367,.T.);
#255=ORIENTED_EDGE('',*,*,#368,.T.);
#256=ORIENTED_EDGE('',*,*,#369,.T.);
#257=ORIENTED_EDGE('',*,*,#370,.F.);
#258=ORIENTED_EDGE('',*,*,#371,.F.);
#259=ORIENTED_EDGE('',*,*,#364,.T.);
#260=ORIENTED_EDGE('',*,*,#345,.T.);
#261=ORIENTED_EDGE('',*,*,#349,.T.);
#262=ORIENTED_EDGE('',*,*,#372,.T.);
#263=ORIENTED_EDGE('',*,*,#351,.T.);
#264=ORIENTED_EDGE('',*,*,#357,.T.);
#265=ORIENTED_EDGE('',*,*,#362,.T.);
#266=ORIENTED_EDGE('',*,*,#373,.T.);
#267=ORIENTED_EDGE('',*,*,#374,.T.);
#268=ORIENTED_EDGE('',*,*,#375,.T.);
#269=ORIENTED_EDGE('',*,*,#376,.T.);
#270=ORIENTED_EDGE('',*,*,#377,.T.);
#271=ORIENTED_EDGE('',*,*,#378,.T.);
#272=ORIENTED_EDGE('',*,*,#379,.T.);
#273=ORIENTED_EDGE('',*,*,#343,.F.);
#274=ORIENTED_EDGE('',*,*,#363,.F.);
#275=ORIENTED_EDGE('',*,*,#360,.F.);
#276=ORIENTED_EDGE('',*,*,#355,.F.);
#277=ORIENTED_EDGE('',*,*,#353,.F.);
#278=ORIENTED_EDGE('',*,*,#380,.T.);
#279=ORIENTED_EDGE('',*,*,#347,.F.);
#280=ORIENTED_EDGE('',*,*,#372,.F.);
#281=ORIENTED_EDGE('',*,*,#348,.F.);
#282=ORIENTED_EDGE('',*,*,#380,.F.);
#283=ORIENTED_EDGE('',*,*,#352,.F.);
#284=ORIENTED_EDGE('',*,*,#359,.F.);
#285=ORIENTED_EDGE('',*,*,#350,.F.);
#286=ORIENTED_EDGE('',*,*,#381,.T.);
#287=ORIENTED_EDGE('',*,*,#381,.F.);
#288=ORIENTED_EDGE('',*,*,#358,.F.);
#289=ORIENTED_EDGE('',*,*,#371,.T.);
#290=ORIENTED_EDGE('',*,*,#379,.F.);
#291=ORIENTED_EDGE('',*,*,#370,.T.);
#292=ORIENTED_EDGE('',*,*,#378,.F.);
#293=ORIENTED_EDGE('',*,*,#369,.F.);
#294=ORIENTED_EDGE('',*,*,#377,.F.);
#295=ORIENTED_EDGE('',*,*,#368,.F.);
#296=ORIENTED_EDGE('',*,*,#376,.F.);
#297=ORIENTED_EDGE('',*,*,#367,.F.);
#298=ORIENTED_EDGE('',*,*,#375,.F.);
#299=ORIENTED_EDGE('',*,*,#366,.F.);
#300=ORIENTED_EDGE('',*,*,#374,.F.);
#301=ORIENTED_EDGE('',*,*,#365,.F.);
#302=ORIENTED_EDGE('',*,*,#373,.F.);
#303=ORIENTED_EDGE('',*,*,#382,.T.);
#304=ORIENTED_EDGE('',*,*,#382,.F.);
#305=ORIENTED_EDGE('',*,*,#342,.F.);
#306=VERTEX_POINT('',#558);
#307=VERTEX_POINT('',#560);
#308=VERTEX_POINT('',#561);
#309=VERTEX_POINT('',#563);
#310=VERTEX_POINT('',#565);
#311=VERTEX_POINT('',#569);
#312=VERTEX_POINT('',#571);
#313=VERTEX_POINT('',#575);
#314=VERTEX_POINT('',#577);
#315=VERTEX_POINT('',#578);
#316=VERTEX_POINT('',#580);
#317=VERTEX_POINT('',#582);
#318=VERTEX_POINT('',#586);
#319=VERTEX_POINT('',#588);
#320=VERTEX_POINT('',#592);
#321=VERTEX_POINT('',#594);
#322=VERTEX_POINT('',#596);
#323=VERTEX_POINT('',#598);
#324=VERTEX_POINT('',#605);
#325=VERTEX_POINT('',#607);
#326=VERTEX_POINT('',#609);
#327=VERTEX_POINT('',#611);
#328=VERTEX_POINT('',#613);
#329=VERTEX_POINT('',#615);
#330=VERTEX_POINT('',#617);
#331=VERTEX_POINT('',#621);
#332=VERTEX_POINT('',#623);
#333=VERTEX_POINT('',#625);
#334=VERTEX_POINT('',#627);
#335=VERTEX_POINT('',#629);
#336=VERTEX_POINT('',#631);
#337=VERTEX_POINT('',#633);
#338=VERTEX_POINT('',#639);
#339=VERTEX_POINT('',#640);
#340=VERTEX_POINT('',#651);
#341=VERTEX_POINT('',#652);
#342=EDGE_CURVE('',#306,#306,#383,.T.);
#343=EDGE_CURVE('',#307,#308,#90,.T.);
#344=EDGE_CURVE('',#309,#308,#91,.T.);
#345=EDGE_CURVE('',#310,#309,#92,.T.);
#346=EDGE_CURVE('',#310,#307,#93,.T.);
#347=EDGE_CURVE('',#308,#311,#94,.T.);
#348=EDGE_CURVE('',#311,#312,#95,.T.);
#349=EDGE_CURVE('',#309,#312,#96,.T.);
#350=EDGE_CURVE('',#313,#313,#384,.T.);
#351=EDGE_CURVE('',#314,#315,#97,.T.);
#352=EDGE_CURVE('',#314,#316,#98,.T.);
#353=EDGE_CURVE('',#316,#317,#99,.T.);
#354=EDGE_CURVE('',#315,#317,#100,.T.);
#355=EDGE_CURVE('',#317,#318,#101,.T.);
#356=EDGE_CURVE('',#319,#318,#102,.T.);
#357=EDGE_CURVE('',#315,#319,#103,.T.);
#358=EDGE_CURVE('',#320,#320,#385,.T.);
#359=EDGE_CURVE('',#321,#321,#386,.T.);
#360=EDGE_CURVE('',#318,#322,#104,.T.);
#361=EDGE_CURVE('',#323,#322,#105,.T.);
#362=EDGE_CURVE('',#319,#323,#106,.T.);
#363=EDGE_CURVE('',#322,#307,#107,.T.);
#364=EDGE_CURVE('',#323,#310,#108,.T.);
#365=EDGE_CURVE('',#324,#324,#387,.T.);
#366=EDGE_CURVE('',#325,#325,#388,.T.);
#367=EDGE_CURVE('',#326,#326,#389,.T.);
#368=EDGE_CURVE('',#327,#327,#390,.T.);
#369=EDGE_CURVE('',#328,#328,#391,.T.);
#370=EDGE_CURVE('',#329,#329,#392,.T.);
#371=EDGE_CURVE('',#330,#330,#393,.T.);
#372=EDGE_CURVE('',#312,#314,#394,.T.);
#373=EDGE_CURVE('',#331,#331,#395,.T.);
#374=EDGE_CURVE('',#332,#332,#396,.T.);
#375=EDGE_CURVE('',#333,#333,#397,.T.);
#376=EDGE_CURVE('',#334,#334,#398,.T.);
#377=EDGE_CURVE('',#335,#335,#399,.T.);
#378=EDGE_CURVE('',#336,#336,#400,.T.);
#379=EDGE_CURVE('',#337,#337,#401,.T.);
#380=EDGE_CURVE('',#316,#311,#402,.T.);
#381=EDGE_CURVE('',#338,#338,#403,.T.);
#382=EDGE_CURVE('',#340,#340,#404,.T.);
#383=CIRCLE('',#406,1.65);
#384=CIRCLE('',#409,3.1);
#385=CIRCLE('',#412,2.);
#386=CIRCLE('',#413,3.1);
#387=CIRCLE('',#416,1.65);
#388=CIRCLE('',#417,1.65);
#389=CIRCLE('',#418,1.65);
#390=CIRCLE('',#419,1.65);
#391=CIRCLE('',#420,1.65);
#392=CIRCLE('',#421,1.65);
#393=CIRCLE('',#422,1.65);
#394=CIRCLE('',#423,1.5);
#395=CIRCLE('',#425,1.65);
#396=CIRCLE('',#426,1.65);
#397=CIRCLE('',#427,1.65);
#398=CIRCLE('',#428,1.65);
#399=CIRCLE('',#429,1.65);
#400=CIRCLE('',#430,1.65);
#401=CIRCLE('',#431,1.65);
#402=CIRCLE('',#432,1.5);
#403=CIRCLE('',#436,2.);
#404=CIRCLE('',#446,1.65);
#405=AXIS2_PLACEMENT_3D('',#556,#449,#450);
#406=AXIS2_PLACEMENT_3D('',#557,#451,#452);
#407=AXIS2_PLACEMENT_3D('',#567,#457,#458);
#408=AXIS2_PLACEMENT_3D('',#573,#462,#463);
#409=AXIS2_PLACEMENT_3D('',#574,#464,#465);
#410=AXIS2_PLACEMENT_3D('',#584,#470,#471);
#411=AXIS2_PLACEMENT_3D('',#590,#475,#476);
#412=AXIS2_PLACEMENT_3D('',#591,#477,#478);
#413=AXIS2_PLACEMENT_3D('',#593,#479,#480);
#414=AXIS2_PLACEMENT_3D('',#600,#484,#485);
#415=AXIS2_PLACEMENT_3D('',#603,#488,#489);
#416=AXIS2_PLACEMENT_3D('',#604,#490,#491);
#417=AXIS2_PLACEMENT_3D('',#606,#492,#493);
#418=AXIS2_PLACEMENT_3D('',#608,#494,#495);
#419=AXIS2_PLACEMENT_3D('',#610,#496,#497);
#420=AXIS2_PLACEMENT_3D('',#612,#498,#499);
#421=AXIS2_PLACEMENT_3D('',#614,#500,#501);
#422=AXIS2_PLACEMENT_3D('',#616,#502,#503);
#423=AXIS2_PLACEMENT_3D('',#618,#504,#505);
#424=AXIS2_PLACEMENT_3D('',#619,#506,#507);
#425=AXIS2_PLACEMENT_3D('',#620,#508,#509);
#426=AXIS2_PLACEMENT_3D('',#622,#510,#511);
#427=AXIS2_PLACEMENT_3D('',#624,#512,#513);
#428=AXIS2_PLACEMENT_3D('',#626,#514,#515);
#429=AXIS2_PLACEMENT_3D('',#628,#516,#517);
#430=AXIS2_PLACEMENT_3D('',#630,#518,#519);
#431=AXIS2_PLACEMENT_3D('',#632,#520,#521);
#432=AXIS2_PLACEMENT_3D('',#634,#522,#523);
#433=AXIS2_PLACEMENT_3D('',#635,#524,#525);
#434=AXIS2_PLACEMENT_3D('',#636,#526,#527);
#435=AXIS2_PLACEMENT_3D('',#637,#528,#529);
#436=AXIS2_PLACEMENT_3D('',#638,#530,#531);
#437=AXIS2_PLACEMENT_3D('',#641,#532,#533);
#438=AXIS2_PLACEMENT_3D('',#642,#534,#535);
#439=AXIS2_PLACEMENT_3D('',#643,#536,#537);
#440=AXIS2_PLACEMENT_3D('',#644,#538,#539);
#441=AXIS2_PLACEMENT_3D('',#645,#540,#541);
#442=AXIS2_PLACEMENT_3D('',#646,#542,#543);
#443=AXIS2_PLACEMENT_3D('',#647,#544,#545);
#444=AXIS2_PLACEMENT_3D('',#648,#546,#547);
#445=AXIS2_PLACEMENT_3D('',#649,#548,#549);
#446=AXIS2_PLACEMENT_3D('',#650,#550,#551);
#447=AXIS2_PLACEMENT_3D('',#653,#552,#553);
#448=AXIS2_PLACEMENT_3D('',#654,#554,#555);
#449=DIRECTION('',(0.,0.,1.));
#450=DIRECTION('',(1.,0.,0.));
#451=DIRECTION('',(0.,0.,-1.));
#452=DIRECTION('',(-1.,0.,0.));
#453=DIRECTION('',(1.,2.02299310416692E-32,0.));
#454=DIRECTION('',(0.,-1.,0.));
#455=DIRECTION('',(1.,2.02299310416692E-32,0.));
#456=DIRECTION('',(0.,-1.,0.));
#457=DIRECTION('',(0.,0.,-1.));
#458=DIRECTION('',(-1.,0.,0.));
#459=DIRECTION('',(0.,1.17797309305681E-33,-1.));
#460=DIRECTION('',(0.,1.,0.));
#461=DIRECTION('',(0.,1.17797309305681E-33,-1.));
#462=DIRECTION('',(-1.,0.,0.));
#463=DIRECTION('',(0.,0.,1.));
#464=DIRECTION('',(-5.33761069531325E-16,0.,-1.));
#465=DIRECTION('',(-1.,0.,0.));
#466=DIRECTION('',(1.,0.,-5.33761069531325E-16));
#467=DIRECTION('',(0.,-1.,0.));
#468=DIRECTION('',(1.,0.,-5.33761069531325E-16));
#469=DIRECTION('',(0.,-1.,0.));
#470=DIRECTION('',(-5.33761069531325E-16,0.,-1.));
#471=DIRECTION('',(-1.,0.,5.34294830600857E-16));
#472=DIRECTION('',(5.78241158658937E-16,0.,-1.));
#473=DIRECTION('',(0.,-1.,0.));
#474=DIRECTION('',(5.78241158658937E-16,0.,-1.));
#475=DIRECTION('',(-1.,0.,-5.78241158658937E-16));
#476=DIRECTION('',(-5.79397640976254E-16,0.,1.));
#477=DIRECTION('',(0.,0.,1.));
#478=DIRECTION('',(1.,0.,0.));
#479=DIRECTION('',(0.,0.,1.));
#480=DIRECTION('',(0.999999999999999,0.,0.));
#481=DIRECTION('',(-1.,0.,0.));
#482=DIRECTION('',(0.,-1.,0.));
#483=DIRECTION('',(-1.,0.,0.));
#484=DIRECTION('',(0.,0.,1.));
#485=DIRECTION('',(1.,0.,0.));
#486=DIRECTION('',(5.78241158658937E-15,0.,1.));
#487=DIRECTION('',(0.,0.,1.));
#488=DIRECTION('',(1.,0.,-5.78241158658937E-15));
#489=DIRECTION('',(-5.78270070716869E-15,0.,-1.));
#490=DIRECTION('',(2.02299310416692E-32,-1.,-2.02461555550243E-48));
#491=DIRECTION('',(1.,0.,0.));
#492=DIRECTION('',(2.02299310416692E-32,-1.,-2.02461555550243E-48));
#493=DIRECTION('',(1.,0.,0.));
#494=DIRECTION('',(2.02299310416692E-32,-1.,-2.02461555550243E-48));
#495=DIRECTION('',(1.,0.,0.));
#496=DIRECTION('',(2.02299310416692E-32,-1.,-2.02461555550243E-48));
#497=DIRECTION('',(1.,0.,0.));
#498=DIRECTION('',(2.02299310416692E-32,-1.,-2.02461555550243E-48));
#499=DIRECTION('',(1.,0.,0.));
#500=DIRECTION('',(-2.02299310416692E-32,1.,0.));
#501=DIRECTION('',(-1.,0.,0.));
#502=DIRECTION('',(-2.02299310416692E-32,1.,0.));
#503=DIRECTION('',(-1.,0.,0.));
#504=DIRECTION('',(2.02299310416692E-32,-1.,0.));
#505=DIRECTION('',(-1.,0.,0.));
#506=DIRECTION('',(-2.02299310416692E-32,1.,0.));
#507=DIRECTION('',(-1.,0.,0.));
#508=DIRECTION('',(-2.02299310416692E-32,1.,0.));
#509=DIRECTION('',(-1.,0.,0.));
#510=DIRECTION('',(-2.02299310416692E-32,1.,0.));
#511=DIRECTION('',(-1.,0.,0.));
#512=DIRECTION('',(-2.02299310416692E-32,1.,0.));
#513=DIRECTION('',(-1.,0.,0.));
#514=DIRECTION('',(-2.02299310416692E-32,1.,0.));
#515=DIRECTION('',(-1.,0.,0.));
#516=DIRECTION('',(-2.02299310416692E-32,1.,0.));
#517=DIRECTION('',(-1.,0.,0.));
#518=DIRECTION('',(-2.02299310416692E-32,1.,2.02461555550243E-48));
#519=DIRECTION('',(-1.,0.,0.));
#520=DIRECTION('',(-2.02299310416692E-32,1.,2.02461555550243E-48));
#521=DIRECTION('',(-1.,0.,0.));
#522=DIRECTION('',(-2.02299310416692E-32,1.,0.));
#523=DIRECTION('',(-1.,0.,0.));
#524=DIRECTION('',(-2.02299310416692E-32,1.,0.));
#525=DIRECTION('',(-1.,0.,0.));
#526=DIRECTION('',(0.,1.,0.));
#527=DIRECTION('',(0.,0.,1.));
#528=DIRECTION('',(0.,0.,1.));
#529=DIRECTION('',(0.999999999999999,0.,0.));
#530=DIRECTION('',(0.,0.,-1.));
#531=DIRECTION('',(1.,0.,0.));
#532=DIRECTION('',(0.,0.,-1.));
#533=DIRECTION('',(-1.,0.,2.00077583471602E-17));
#534=DIRECTION('',(0.,0.,1.));
#535=DIRECTION('',(1.,0.,0.));
#536=DIRECTION('',(-2.02299310416692E-32,1.,2.02461555550243E-48));
#537=DIRECTION('',(-1.,0.,0.));
#538=DIRECTION('',(-2.02299310416692E-32,1.,2.02461555550243E-48));
#539=DIRECTION('',(-1.,0.,0.));
#540=DIRECTION('',(2.02299310416692E-32,-1.,-2.02461555550243E-48));
#541=DIRECTION('',(1.,0.,0.));
#542=DIRECTION('',(2.02299310416692E-32,-1.,-2.02461555550243E-48));
#543=DIRECTION('',(1.,0.,0.));
#544=DIRECTION('',(2.02299310416692E-32,-1.,-2.02461555550243E-48));
#545=DIRECTION('',(1.,0.,0.));
#546=DIRECTION('',(2.02299310416692E-32,-1.,-2.02461555550243E-48));
#547=DIRECTION('',(1.,0.,0.));
#548=DIRECTION('',(2.02299310416692E-32,-1.,-2.02461555550243E-48));
#549=DIRECTION('',(1.,0.,0.));
#550=DIRECTION('',(0.,0.,1.));
#551=DIRECTION('',(-1.,0.,0.));
#552=DIRECTION('',(0.,0.,1.));
#553=DIRECTION('',(1.,0.,4.99821437396034E-17));
#554=DIRECTION('',(0.,0.,-1.));
#555=DIRECTION('',(-1.,0.,0.));
#556=CARTESIAN_POINT('',(0.,0.,0.));
#557=CARTESIAN_POINT('',(2.66453525910038E-15,0.,233.));
#558=CARTESIAN_POINT('',(-1.65,0.,233.));
#559=CARTESIAN_POINT('',(-6.00000000000002,-5.,233.));
#560=CARTESIAN_POINT('',(-5.99999999999891,-5.,233.));
#561=CARTESIAN_POINT('',(5.99999999999999,-5.,233.));
#562=CARTESIAN_POINT('',(5.99999999999999,5.,233.));
#563=CARTESIAN_POINT('',(5.99999999999999,5.,233.));
#564=CARTESIAN_POINT('',(-6.00000000000002,5.,233.));
#565=CARTESIAN_POINT('',(-6.00000000000002,5.,233.));
#566=CARTESIAN_POINT('',(-5.99999999999891,5.,233.));
#567=CARTESIAN_POINT('',(-6.00000000000002,5.,233.));
#568=CARTESIAN_POINT('',(5.99999999999999,-5.,223.));
#569=CARTESIAN_POINT('',(5.99999999999999,-5.,42.5));
#570=CARTESIAN_POINT('',(5.99999999999999,5.,42.5));
#571=CARTESIAN_POINT('',(5.99999999999999,5.,42.5));
#572=CARTESIAN_POINT('',(5.99999999999999,5.,223.));
#573=CARTESIAN_POINT('',(5.99999999999999,5.,223.));
#574=CARTESIAN_POINT('',(12.9999999999999,0.,41.));
#575=CARTESIAN_POINT('',(9.8999999999999,0.,41.));
#576=CARTESIAN_POINT('',(5.99999999999999,5.,41.));
#577=CARTESIAN_POINT('',(7.49999999999999,5.,41.));
#578=CARTESIAN_POINT('',(19.,5.,41.));
#579=CARTESIAN_POINT('',(7.49999999999999,-5.,41.));
#580=CARTESIAN_POINT('',(7.49999999999999,-5.,41.));
#581=CARTESIAN_POINT('',(5.99999999999999,-5.,41.));
#582=CARTESIAN_POINT('',(19.,-5.,41.));
#583=CARTESIAN_POINT('',(19.,5.,41.));
#584=CARTESIAN_POINT('',(5.99999999999999,5.,41.));
#585=CARTESIAN_POINT('',(19.,-5.,41.));
#586=CARTESIAN_POINT('',(19.,-5.,35.));
#587=CARTESIAN_POINT('',(19.,5.,35.));
#588=CARTESIAN_POINT('',(19.,5.,35.));
#589=CARTESIAN_POINT('',(19.,5.,41.));
#590=CARTESIAN_POINT('',(19.,5.,41.));
#591=CARTESIAN_POINT('',(3.4999999999999,0.,35.));
#592=CARTESIAN_POINT('',(5.4999999999999,0.,35.));
#593=CARTESIAN_POINT('',(12.9999999999999,0.,35.));
#594=CARTESIAN_POINT('',(16.0999999999999,0.,35.));
#595=CARTESIAN_POINT('',(19.,-5.,35.));
#596=CARTESIAN_POINT('',(-6.00000000000005,-5.,35.));
#597=CARTESIAN_POINT('',(-6.00000000000005,5.,35.));
#598=CARTESIAN_POINT('',(-6.00000000000005,5.,35.));
#599=CARTESIAN_POINT('',(19.,5.,35.));
#600=CARTESIAN_POINT('',(19.,5.,35.));
#601=CARTESIAN_POINT('',(-6.00000000000005,-5.,35.));
#602=CARTESIAN_POINT('',(-6.00000000000002,5.,41.));
#603=CARTESIAN_POINT('',(-6.00000000000005,5.,35.));
#604=CARTESIAN_POINT('',(-4.2632564145606E-14,5.,112.));
#605=CARTESIAN_POINT('',(1.64999999999996,5.,112.));
#606=CARTESIAN_POINT('',(-3.64153152077051E-14,5.,92.));
#607=CARTESIAN_POINT('',(1.64999999999996,5.,92.));
#608=CARTESIAN_POINT('',(-3.90798504668055E-14,5.,65.));
#609=CARTESIAN_POINT('',(1.64999999999996,5.,65.));
#610=CARTESIAN_POINT('',(-4.88498130835069E-14,5.,219.5));
#611=CARTESIAN_POINT('',(1.64999999999995,5.,219.5));
#612=CARTESIAN_POINT('',(-4.2632564145606E-14,5.,152.));
#613=CARTESIAN_POINT('',(1.64999999999996,5.,152.));
#614=CARTESIAN_POINT('',(-5.06261699229071E-14,5.,184.));
#615=CARTESIAN_POINT('',(-1.65000000000005,5.,184.));
#616=CARTESIAN_POINT('',(-3.81916720471054E-14,5.,126.));
#617=CARTESIAN_POINT('',(-1.65000000000004,5.,126.));
#618=CARTESIAN_POINT('',(7.49999999999999,5.,42.5));
#619=CARTESIAN_POINT('',(1.92495329738231E-63,5.,0.));
#620=CARTESIAN_POINT('',(-4.2632564145606E-14,-5.,112.));
#621=CARTESIAN_POINT('',(-1.65000000000004,-5.,112.));
#622=CARTESIAN_POINT('',(-3.64153152077051E-14,-5.,92.));
#623=CARTESIAN_POINT('',(-1.65000000000004,-5.,92.));
#624=CARTESIAN_POINT('',(-3.90798504668055E-14,-5.,65.));
#625=CARTESIAN_POINT('',(-1.65000000000004,-5.,65.));
#626=CARTESIAN_POINT('',(-4.88498130835069E-14,-5.,219.5));
#627=CARTESIAN_POINT('',(-1.65000000000005,-5.,219.5));
#628=CARTESIAN_POINT('',(-4.2632564145606E-14,-5.,152.));
#629=CARTESIAN_POINT('',(-1.65000000000004,-5.,152.));
#630=CARTESIAN_POINT('',(-5.06261699229071E-14,-5.,184.));
#631=CARTESIAN_POINT('',(-1.65000000000005,-5.,184.));
#632=CARTESIAN_POINT('',(-3.81916720471054E-14,-5.,126.));
#633=CARTESIAN_POINT('',(-1.65000000000004,-5.,126.));
#634=CARTESIAN_POINT('',(7.49999999999999,-5.,42.5));
#635=CARTESIAN_POINT('',(1.92495329738231E-63,-5.,0.));
#636=CARTESIAN_POINT('',(7.49999999999999,5.,42.5));
#637=CARTESIAN_POINT('',(12.9999999999999,0.,35.));
#638=CARTESIAN_POINT('',(3.4999999999999,0.,41.));
#639=CARTESIAN_POINT('',(5.4999999999999,0.,41.));
#640=CARTESIAN_POINT('',(3.4999999999999,0.,42.1547005383793));
#641=CARTESIAN_POINT('',(3.4999999999999,0.,41.));
#642=CARTESIAN_POINT('',(3.4999999999999,0.,35.));
#643=CARTESIAN_POINT('',(-3.81916720471054E-14,-5.,126.));
#644=CARTESIAN_POINT('',(-5.06261699229071E-14,-5.,184.));
#645=CARTESIAN_POINT('',(-4.2632564145606E-14,5.,152.));
#646=CARTESIAN_POINT('',(-4.88498130835069E-14,5.,219.5));
#647=CARTESIAN_POINT('',(-3.90798504668055E-14,5.,65.));
#648=CARTESIAN_POINT('',(-3.64153152077051E-14,5.,92.));
#649=CARTESIAN_POINT('',(-4.2632564145606E-14,5.,112.));
#650=CARTESIAN_POINT('',(2.66453525910038E-15,0.,225.));
#651=CARTESIAN_POINT('',(-1.65,0.,225.));
#652=CARTESIAN_POINT('',(2.66453525910038E-15,0.,224.008579978605));
#653=CARTESIAN_POINT('',(2.66453525910038E-15,0.,225.));
#654=CARTESIAN_POINT('',(2.66453525910038E-15,0.,233.));
#655=MECHANICAL_DESIGN_GEOMETRIC_PRESENTATION_REPRESENTATION('',(#32),#656);
#656=(
GEOMETRIC_REPRESENTATION_CONTEXT(3)
GLOBAL_UNCERTAINTY_ASSIGNED_CONTEXT((#657))
GLOBAL_UNIT_ASSIGNED_CONTEXT((#663,#659,#658))
REPRESENTATION_CONTEXT('190718_L support','TOP_LEVEL_ASSEMBLY_PART')
);
#657=UNCERTAINTY_MEASURE_WITH_UNIT(LENGTH_MEASURE(2.E-5),#663,
'DISTANCE_ACCURACY_VALUE','Maximum Tolerance applied to model');
#658=(
NAMED_UNIT(*)
SI_UNIT($,.STERADIAN.)
SOLID_ANGLE_UNIT()
);
#659=(
CONVERSION_BASED_UNIT('DEGREE',#661)
NAMED_UNIT(#660)
PLANE_ANGLE_UNIT()
);
#660=DIMENSIONAL_EXPONENTS(0.,0.,0.,0.,0.,0.,0.);
#661=PLANE_ANGLE_MEASURE_WITH_UNIT(PLANE_ANGLE_MEASURE(0.0174532925),#662);
#662=(
NAMED_UNIT(*)
PLANE_ANGLE_UNIT()
SI_UNIT($,.RADIAN.)
);
#663=(
LENGTH_UNIT()
NAMED_UNIT(*)
SI_UNIT(.MILLI.,.METRE.)
);
ENDSEC;
END-ISO-10303-21;
