ISO-10303-21;
HEADER;
/* Generated by software containing ST-Developer
 * from STEP Tools, Inc. (www.steptools.com) 
 */
/* OPTION: using custom schema-name function */

FILE_DESCRIPTION(
/* description */ (''),
/* implementation_level */ '2;1');

FILE_NAME(
/* name */ '190718_T_support.stp',
/* time_stamp */ '2019-07-18T14:05:29+02:00',
/* author */ (''),
/* organization */ (''),
/* preprocessor_version */ 'ST-DEVELOPER v16.7',
/* originating_system */ 'SIEMENS PLM Software NX 12.0',
/* authorisation */ '');

FILE_SCHEMA (('AUTOMOTIVE_DESIGN { 1 0 10303 214 3 1 1 1 }'));
ENDSEC;

DATA;
#10=PROPERTY_DEFINITION_REPRESENTATION(#14,#12);
#11=PROPERTY_DEFINITION_REPRESENTATION(#15,#13);
#12=REPRESENTATION('',(#16),#747);
#13=REPRESENTATION('',(#17),#747);
#14=PROPERTY_DEFINITION('pmi validation property','',#21);
#15=PROPERTY_DEFINITION('pmi validation property','',#21);
#16=VALUE_REPRESENTATION_ITEM('number of annotations',COUNT_MEASURE(0.));
#17=VALUE_REPRESENTATION_ITEM('number of views',COUNT_MEASURE(0.));
#18=SHAPE_REPRESENTATION_RELATIONSHIP('None',
'relationship between bmas477C8C18u67q-None and bmas477C8C18u67q-None',
#30,#19);
#19=ADVANCED_BREP_SHAPE_REPRESENTATION('bmas477C8C18u67q-None',(#40),#747);
#20=SHAPE_DEFINITION_REPRESENTATION(#21,#30);
#21=PRODUCT_DEFINITION_SHAPE('','',#22);
#22=PRODUCT_DEFINITION(' ','',#24,#23);
#23=PRODUCT_DEFINITION_CONTEXT('part definition',#29,'design');
#24=PRODUCT_DEFINITION_FORMATION_WITH_SPECIFIED_SOURCE(' ',' ',#26,
 .NOT_KNOWN.);
#25=PRODUCT_RELATED_PRODUCT_CATEGORY('part','',(#26));
#26=PRODUCT('bmas477C8C18u67q','bmas477C8C18u67q',' ',(#27));
#27=PRODUCT_CONTEXT(' ',#29,'mechanical');
#28=APPLICATION_PROTOCOL_DEFINITION('international standard',
'automotive_design',2010,#29);
#29=APPLICATION_CONTEXT(
'core data for automotive mechanical design processes');
#30=SHAPE_REPRESENTATION('bmas477C8C18u67q-None',(#461),#747);
#31=PRESENTATION_LAYER_ASSIGNMENT('1','Layer 1',(#40));
#32=STYLED_ITEM('',(#33),#40);
#33=PRESENTATION_STYLE_ASSIGNMENT((#34));
#34=SURFACE_STYLE_USAGE(.BOTH.,#35);
#35=SURFACE_SIDE_STYLE('',(#36));
#36=SURFACE_STYLE_FILL_AREA(#37);
#37=FILL_AREA_STYLE('',(#38));
#38=FILL_AREA_STYLE_COLOUR('',#39);
#39=COLOUR_RGB('Deep Orange',1.,0.4,0.);
#40=MANIFOLD_SOLID_BREP('',#41);
#41=CLOSED_SHELL('',(#62,#63,#64,#65,#66,#67,#68,#69,#70,#71,#72,#73,#74,
#75,#76,#77,#78,#79,#80,#81,#82,#83,#84));
#42=CONICAL_SURFACE('',#507,1.65,59.);
#43=VERTEX_LOOP('',#386);
#44=CYLINDRICAL_SURFACE('',#495,3.);
#45=CYLINDRICAL_SURFACE('',#496,3.);
#46=CYLINDRICAL_SURFACE('',#497,1.65);
#47=CYLINDRICAL_SURFACE('',#498,1.65);
#48=CYLINDRICAL_SURFACE('',#499,3.1);
#49=CYLINDRICAL_SURFACE('',#500,3.1);
#50=CYLINDRICAL_SURFACE('',#501,1.65);
#51=CYLINDRICAL_SURFACE('',#502,1.65);
#52=CYLINDRICAL_SURFACE('',#503,1.65);
#53=CYLINDRICAL_SURFACE('',#504,1.65);
#54=CYLINDRICAL_SURFACE('',#505,1.65);
#55=CYLINDRICAL_SURFACE('',#508,1.65);
#56=FACE_OUTER_BOUND('',#197,.T.);
#57=FACE_OUTER_BOUND('',#200,.T.);
#58=FACE_OUTER_BOUND('',#203,.T.);
#59=FACE_OUTER_BOUND('',#206,.T.);
#60=FACE_OUTER_BOUND('',#223,.T.);
#61=FACE_OUTER_BOUND('',#224,.T.);
#62=ADVANCED_FACE('',(#147,#148,#149),#85,.F.);
#63=ADVANCED_FACE('',(#56),#86,.F.);
#64=ADVANCED_FACE('',(#150,#151),#87,.F.);
#65=ADVANCED_FACE('',(#57),#88,.F.);
#66=ADVANCED_FACE('',(#152,#153),#89,.F.);
#67=ADVANCED_FACE('',(#58),#90,.F.);
#68=ADVANCED_FACE('',(#154,#155),#91,.F.);
#69=ADVANCED_FACE('',(#59),#92,.F.);
#70=ADVANCED_FACE('',(#156,#157,#158,#159,#160,#161,#162,#163),#93,.T.);
#71=ADVANCED_FACE('',(#164,#165,#166,#167,#168,#169,#170,#171),#94,.F.);
#72=ADVANCED_FACE('',(#60),#44,.F.);
#73=ADVANCED_FACE('',(#61),#45,.F.);
#74=ADVANCED_FACE('',(#172,#173),#46,.F.);
#75=ADVANCED_FACE('',(#174,#175),#47,.F.);
#76=ADVANCED_FACE('',(#176,#177),#48,.F.);
#77=ADVANCED_FACE('',(#178,#179),#49,.F.);
#78=ADVANCED_FACE('',(#180,#181),#50,.F.);
#79=ADVANCED_FACE('',(#182,#183),#51,.F.);
#80=ADVANCED_FACE('',(#184,#185),#52,.F.);
#81=ADVANCED_FACE('',(#186,#187),#53,.F.);
#82=ADVANCED_FACE('',(#188,#189),#54,.F.);
#83=ADVANCED_FACE('',(#190,#191),#42,.F.);
#84=ADVANCED_FACE('',(#192,#193),#55,.F.);
#85=PLANE('',#464);
#86=PLANE('',#465);
#87=PLANE('',#467);
#88=PLANE('',#468);
#89=PLANE('',#470);
#90=PLANE('',#471);
#91=PLANE('',#473);
#92=PLANE('',#474);
#93=PLANE('',#484);
#94=PLANE('',#494);
#95=LINE('',#636,#121);
#96=LINE('',#639,#122);
#97=LINE('',#641,#123);
#98=LINE('',#643,#124);
#99=LINE('',#645,#125);
#100=LINE('',#647,#126);
#101=LINE('',#649,#127);
#102=LINE('',#653,#128);
#103=LINE('',#655,#129);
#104=LINE('',#657,#130);
#105=LINE('',#659,#131);
#106=LINE('',#662,#132);
#107=LINE('',#664,#133);
#108=LINE('',#666,#134);
#109=LINE('',#670,#135);
#110=LINE('',#672,#136);
#111=LINE('',#674,#137);
#112=LINE('',#676,#138);
#113=LINE('',#678,#139);
#114=LINE('',#680,#140);
#115=LINE('',#684,#141);
#116=LINE('',#687,#142);
#117=LINE('',#689,#143);
#118=LINE('',#691,#144);
#119=LINE('',#693,#145);
#120=LINE('',#694,#146);
#121=VECTOR('',#515,1.);
#122=VECTOR('',#516,1.);
#123=VECTOR('',#517,1.);
#124=VECTOR('',#518,1.);
#125=VECTOR('',#521,1.);
#126=VECTOR('',#522,1.);
#127=VECTOR('',#523,1.);
#128=VECTOR('',#528,1.);
#129=VECTOR('',#529,1.);
#130=VECTOR('',#530,1.);
#131=VECTOR('',#533,1.);
#132=VECTOR('',#534,1.);
#133=VECTOR('',#535,1.);
#134=VECTOR('',#536,1.);
#135=VECTOR('',#541,1.);
#136=VECTOR('',#542,1.);
#137=VECTOR('',#543,1.);
#138=VECTOR('',#546,1.);
#139=VECTOR('',#547,1.);
#140=VECTOR('',#548,1.);
#141=VECTOR('',#553,1.);
#142=VECTOR('',#554,1.);
#143=VECTOR('',#555,1.);
#144=VECTOR('',#556,1.);
#145=VECTOR('',#559,1.);
#146=VECTOR('',#560,1.);
#147=FACE_BOUND('',#194,.T.);
#148=FACE_BOUND('',#195,.T.);
#149=FACE_BOUND('',#196,.T.);
#150=FACE_BOUND('',#198,.T.);
#151=FACE_BOUND('',#199,.T.);
#152=FACE_BOUND('',#201,.T.);
#153=FACE_BOUND('',#202,.T.);
#154=FACE_BOUND('',#204,.T.);
#155=FACE_BOUND('',#205,.T.);
#156=FACE_BOUND('',#207,.T.);
#157=FACE_BOUND('',#208,.T.);
#158=FACE_BOUND('',#209,.T.);
#159=FACE_BOUND('',#210,.T.);
#160=FACE_BOUND('',#211,.T.);
#161=FACE_BOUND('',#212,.T.);
#162=FACE_BOUND('',#213,.T.);
#163=FACE_BOUND('',#214,.T.);
#164=FACE_BOUND('',#215,.T.);
#165=FACE_BOUND('',#216,.T.);
#166=FACE_BOUND('',#217,.T.);
#167=FACE_BOUND('',#218,.T.);
#168=FACE_BOUND('',#219,.T.);
#169=FACE_BOUND('',#220,.T.);
#170=FACE_BOUND('',#221,.T.);
#171=FACE_BOUND('',#222,.T.);
#172=FACE_BOUND('',#225,.T.);
#173=FACE_BOUND('',#226,.T.);
#174=FACE_BOUND('',#227,.T.);
#175=FACE_BOUND('',#228,.T.);
#176=FACE_BOUND('',#229,.T.);
#177=FACE_BOUND('',#230,.T.);
#178=FACE_BOUND('',#231,.T.);
#179=FACE_BOUND('',#232,.T.);
#180=FACE_BOUND('',#233,.T.);
#181=FACE_BOUND('',#234,.T.);
#182=FACE_BOUND('',#235,.T.);
#183=FACE_BOUND('',#236,.T.);
#184=FACE_BOUND('',#237,.T.);
#185=FACE_BOUND('',#238,.T.);
#186=FACE_BOUND('',#239,.T.);
#187=FACE_BOUND('',#240,.T.);
#188=FACE_BOUND('',#241,.T.);
#189=FACE_BOUND('',#242,.T.);
#190=FACE_BOUND('',#243,.T.);
#191=FACE_BOUND('',#43,.T.);
#192=FACE_BOUND('',#244,.T.);
#193=FACE_BOUND('',#245,.T.);
#194=EDGE_LOOP('',(#246));
#195=EDGE_LOOP('',(#247));
#196=EDGE_LOOP('',(#248,#249,#250,#251));
#197=EDGE_LOOP('',(#252,#253,#254,#255));
#198=EDGE_LOOP('',(#256));
#199=EDGE_LOOP('',(#257,#258,#259,#260));
#200=EDGE_LOOP('',(#261,#262,#263,#264));
#201=EDGE_LOOP('',(#265));
#202=EDGE_LOOP('',(#266,#267,#268,#269));
#203=EDGE_LOOP('',(#270,#271,#272,#273));
#204=EDGE_LOOP('',(#274));
#205=EDGE_LOOP('',(#275,#276,#277,#278));
#206=EDGE_LOOP('',(#279,#280,#281,#282));
#207=EDGE_LOOP('',(#283));
#208=EDGE_LOOP('',(#284));
#209=EDGE_LOOP('',(#285));
#210=EDGE_LOOP('',(#286));
#211=EDGE_LOOP('',(#287));
#212=EDGE_LOOP('',(#288));
#213=EDGE_LOOP('',(#289));
#214=EDGE_LOOP('',(#290,#291,#292,#293,#294,#295,#296,#297,#298,#299));
#215=EDGE_LOOP('',(#300));
#216=EDGE_LOOP('',(#301));
#217=EDGE_LOOP('',(#302));
#218=EDGE_LOOP('',(#303));
#219=EDGE_LOOP('',(#304));
#220=EDGE_LOOP('',(#305));
#221=EDGE_LOOP('',(#306));
#222=EDGE_LOOP('',(#307,#308,#309,#310,#311,#312,#313,#314,#315,#316));
#223=EDGE_LOOP('',(#317,#318,#319,#320));
#224=EDGE_LOOP('',(#321,#322,#323,#324));
#225=EDGE_LOOP('',(#325));
#226=EDGE_LOOP('',(#326));
#227=EDGE_LOOP('',(#327));
#228=EDGE_LOOP('',(#328));
#229=EDGE_LOOP('',(#329));
#230=EDGE_LOOP('',(#330));
#231=EDGE_LOOP('',(#331));
#232=EDGE_LOOP('',(#332));
#233=EDGE_LOOP('',(#333));
#234=EDGE_LOOP('',(#334));
#235=EDGE_LOOP('',(#335));
#236=EDGE_LOOP('',(#336));
#237=EDGE_LOOP('',(#337));
#238=EDGE_LOOP('',(#338));
#239=EDGE_LOOP('',(#339));
#240=EDGE_LOOP('',(#340));
#241=EDGE_LOOP('',(#341));
#242=EDGE_LOOP('',(#342));
#243=EDGE_LOOP('',(#343));
#244=EDGE_LOOP('',(#344));
#245=EDGE_LOOP('',(#345));
#246=ORIENTED_EDGE('',*,*,#387,.T.);
#247=ORIENTED_EDGE('',*,*,#388,.T.);
#248=ORIENTED_EDGE('',*,*,#389,.T.);
#249=ORIENTED_EDGE('',*,*,#390,.F.);
#250=ORIENTED_EDGE('',*,*,#391,.F.);
#251=ORIENTED_EDGE('',*,*,#392,.T.);
#252=ORIENTED_EDGE('',*,*,#393,.T.);
#253=ORIENTED_EDGE('',*,*,#394,.F.);
#254=ORIENTED_EDGE('',*,*,#395,.F.);
#255=ORIENTED_EDGE('',*,*,#390,.T.);
#256=ORIENTED_EDGE('',*,*,#396,.T.);
#257=ORIENTED_EDGE('',*,*,#397,.T.);
#258=ORIENTED_EDGE('',*,*,#398,.T.);
#259=ORIENTED_EDGE('',*,*,#399,.F.);
#260=ORIENTED_EDGE('',*,*,#394,.T.);
#261=ORIENTED_EDGE('',*,*,#400,.F.);
#262=ORIENTED_EDGE('',*,*,#401,.T.);
#263=ORIENTED_EDGE('',*,*,#402,.T.);
#264=ORIENTED_EDGE('',*,*,#403,.F.);
#265=ORIENTED_EDGE('',*,*,#404,.T.);
#266=ORIENTED_EDGE('',*,*,#405,.T.);
#267=ORIENTED_EDGE('',*,*,#406,.F.);
#268=ORIENTED_EDGE('',*,*,#407,.F.);
#269=ORIENTED_EDGE('',*,*,#403,.T.);
#270=ORIENTED_EDGE('',*,*,#408,.T.);
#271=ORIENTED_EDGE('',*,*,#409,.T.);
#272=ORIENTED_EDGE('',*,*,#410,.F.);
#273=ORIENTED_EDGE('',*,*,#406,.T.);
#274=ORIENTED_EDGE('',*,*,#411,.T.);
#275=ORIENTED_EDGE('',*,*,#412,.F.);
#276=ORIENTED_EDGE('',*,*,#413,.T.);
#277=ORIENTED_EDGE('',*,*,#414,.T.);
#278=ORIENTED_EDGE('',*,*,#415,.F.);
#279=ORIENTED_EDGE('',*,*,#416,.T.);
#280=ORIENTED_EDGE('',*,*,#392,.F.);
#281=ORIENTED_EDGE('',*,*,#417,.F.);
#282=ORIENTED_EDGE('',*,*,#415,.T.);
#283=ORIENTED_EDGE('',*,*,#418,.F.);
#284=ORIENTED_EDGE('',*,*,#419,.F.);
#285=ORIENTED_EDGE('',*,*,#420,.F.);
#286=ORIENTED_EDGE('',*,*,#421,.T.);
#287=ORIENTED_EDGE('',*,*,#422,.T.);
#288=ORIENTED_EDGE('',*,*,#423,.F.);
#289=ORIENTED_EDGE('',*,*,#424,.F.);
#290=ORIENTED_EDGE('',*,*,#391,.T.);
#291=ORIENTED_EDGE('',*,*,#395,.T.);
#292=ORIENTED_EDGE('',*,*,#399,.T.);
#293=ORIENTED_EDGE('',*,*,#425,.T.);
#294=ORIENTED_EDGE('',*,*,#400,.T.);
#295=ORIENTED_EDGE('',*,*,#407,.T.);
#296=ORIENTED_EDGE('',*,*,#410,.T.);
#297=ORIENTED_EDGE('',*,*,#426,.T.);
#298=ORIENTED_EDGE('',*,*,#412,.T.);
#299=ORIENTED_EDGE('',*,*,#417,.T.);
#300=ORIENTED_EDGE('',*,*,#427,.T.);
#301=ORIENTED_EDGE('',*,*,#428,.T.);
#302=ORIENTED_EDGE('',*,*,#429,.T.);
#303=ORIENTED_EDGE('',*,*,#430,.T.);
#304=ORIENTED_EDGE('',*,*,#431,.T.);
#305=ORIENTED_EDGE('',*,*,#432,.T.);
#306=ORIENTED_EDGE('',*,*,#433,.T.);
#307=ORIENTED_EDGE('',*,*,#389,.F.);
#308=ORIENTED_EDGE('',*,*,#416,.F.);
#309=ORIENTED_EDGE('',*,*,#414,.F.);
#310=ORIENTED_EDGE('',*,*,#434,.T.);
#311=ORIENTED_EDGE('',*,*,#408,.F.);
#312=ORIENTED_EDGE('',*,*,#405,.F.);
#313=ORIENTED_EDGE('',*,*,#402,.F.);
#314=ORIENTED_EDGE('',*,*,#435,.T.);
#315=ORIENTED_EDGE('',*,*,#397,.F.);
#316=ORIENTED_EDGE('',*,*,#393,.F.);
#317=ORIENTED_EDGE('',*,*,#426,.F.);
#318=ORIENTED_EDGE('',*,*,#409,.F.);
#319=ORIENTED_EDGE('',*,*,#434,.F.);
#320=ORIENTED_EDGE('',*,*,#413,.F.);
#321=ORIENTED_EDGE('',*,*,#425,.F.);
#322=ORIENTED_EDGE('',*,*,#398,.F.);
#323=ORIENTED_EDGE('',*,*,#435,.F.);
#324=ORIENTED_EDGE('',*,*,#401,.F.);
#325=ORIENTED_EDGE('',*,*,#424,.T.);
#326=ORIENTED_EDGE('',*,*,#433,.F.);
#327=ORIENTED_EDGE('',*,*,#423,.T.);
#328=ORIENTED_EDGE('',*,*,#432,.F.);
#329=ORIENTED_EDGE('',*,*,#388,.F.);
#330=ORIENTED_EDGE('',*,*,#396,.F.);
#331=ORIENTED_EDGE('',*,*,#387,.F.);
#332=ORIENTED_EDGE('',*,*,#411,.F.);
#333=ORIENTED_EDGE('',*,*,#422,.F.);
#334=ORIENTED_EDGE('',*,*,#431,.F.);
#335=ORIENTED_EDGE('',*,*,#421,.F.);
#336=ORIENTED_EDGE('',*,*,#430,.F.);
#337=ORIENTED_EDGE('',*,*,#420,.T.);
#338=ORIENTED_EDGE('',*,*,#429,.F.);
#339=ORIENTED_EDGE('',*,*,#419,.T.);
#340=ORIENTED_EDGE('',*,*,#428,.F.);
#341=ORIENTED_EDGE('',*,*,#418,.T.);
#342=ORIENTED_EDGE('',*,*,#427,.F.);
#343=ORIENTED_EDGE('',*,*,#436,.T.);
#344=ORIENTED_EDGE('',*,*,#436,.F.);
#345=ORIENTED_EDGE('',*,*,#404,.F.);
#346=VERTEX_POINT('',#633);
#347=VERTEX_POINT('',#635);
#348=VERTEX_POINT('',#637);
#349=VERTEX_POINT('',#638);
#350=VERTEX_POINT('',#640);
#351=VERTEX_POINT('',#642);
#352=VERTEX_POINT('',#646);
#353=VERTEX_POINT('',#648);
#354=VERTEX_POINT('',#652);
#355=VERTEX_POINT('',#654);
#356=VERTEX_POINT('',#656);
#357=VERTEX_POINT('',#660);
#358=VERTEX_POINT('',#661);
#359=VERTEX_POINT('',#663);
#360=VERTEX_POINT('',#665);
#361=VERTEX_POINT('',#669);
#362=VERTEX_POINT('',#671);
#363=VERTEX_POINT('',#673);
#364=VERTEX_POINT('',#677);
#365=VERTEX_POINT('',#679);
#366=VERTEX_POINT('',#683);
#367=VERTEX_POINT('',#685);
#368=VERTEX_POINT('',#686);
#369=VERTEX_POINT('',#688);
#370=VERTEX_POINT('',#690);
#371=VERTEX_POINT('',#697);
#372=VERTEX_POINT('',#699);
#373=VERTEX_POINT('',#701);
#374=VERTEX_POINT('',#703);
#375=VERTEX_POINT('',#705);
#376=VERTEX_POINT('',#707);
#377=VERTEX_POINT('',#709);
#378=VERTEX_POINT('',#714);
#379=VERTEX_POINT('',#716);
#380=VERTEX_POINT('',#718);
#381=VERTEX_POINT('',#720);
#382=VERTEX_POINT('',#722);
#383=VERTEX_POINT('',#724);
#384=VERTEX_POINT('',#726);
#385=VERTEX_POINT('',#742);
#386=VERTEX_POINT('',#743);
#387=EDGE_CURVE('',#346,#346,#437,.T.);
#388=EDGE_CURVE('',#347,#347,#438,.T.);
#389=EDGE_CURVE('',#348,#349,#95,.T.);
#390=EDGE_CURVE('',#350,#349,#96,.T.);
#391=EDGE_CURVE('',#351,#350,#97,.T.);
#392=EDGE_CURVE('',#351,#348,#98,.T.);
#393=EDGE_CURVE('',#349,#352,#99,.T.);
#394=EDGE_CURVE('',#353,#352,#100,.T.);
#395=EDGE_CURVE('',#350,#353,#101,.T.);
#396=EDGE_CURVE('',#354,#354,#439,.T.);
#397=EDGE_CURVE('',#352,#355,#102,.T.);
#398=EDGE_CURVE('',#355,#356,#103,.T.);
#399=EDGE_CURVE('',#353,#356,#104,.T.);
#400=EDGE_CURVE('',#357,#358,#105,.T.);
#401=EDGE_CURVE('',#357,#359,#106,.T.);
#402=EDGE_CURVE('',#359,#360,#107,.T.);
#403=EDGE_CURVE('',#358,#360,#108,.T.);
#404=EDGE_CURVE('',#361,#361,#440,.T.);
#405=EDGE_CURVE('',#360,#362,#109,.T.);
#406=EDGE_CURVE('',#363,#362,#110,.T.);
#407=EDGE_CURVE('',#358,#363,#111,.T.);
#408=EDGE_CURVE('',#362,#364,#112,.T.);
#409=EDGE_CURVE('',#364,#365,#113,.T.);
#410=EDGE_CURVE('',#363,#365,#114,.T.);
#411=EDGE_CURVE('',#366,#366,#441,.T.);
#412=EDGE_CURVE('',#367,#368,#115,.T.);
#413=EDGE_CURVE('',#367,#369,#116,.T.);
#414=EDGE_CURVE('',#369,#370,#117,.T.);
#415=EDGE_CURVE('',#368,#370,#118,.T.);
#416=EDGE_CURVE('',#370,#348,#119,.T.);
#417=EDGE_CURVE('',#368,#351,#120,.T.);
#418=EDGE_CURVE('',#371,#371,#442,.T.);
#419=EDGE_CURVE('',#372,#372,#443,.T.);
#420=EDGE_CURVE('',#373,#373,#444,.T.);
#421=EDGE_CURVE('',#374,#374,#445,.T.);
#422=EDGE_CURVE('',#375,#375,#446,.T.);
#423=EDGE_CURVE('',#376,#376,#447,.T.);
#424=EDGE_CURVE('',#377,#377,#448,.T.);
#425=EDGE_CURVE('',#356,#357,#449,.T.);
#426=EDGE_CURVE('',#365,#367,#450,.T.);
#427=EDGE_CURVE('',#378,#378,#451,.T.);
#428=EDGE_CURVE('',#379,#379,#452,.T.);
#429=EDGE_CURVE('',#380,#380,#453,.T.);
#430=EDGE_CURVE('',#381,#381,#454,.T.);
#431=EDGE_CURVE('',#382,#382,#455,.T.);
#432=EDGE_CURVE('',#383,#383,#456,.T.);
#433=EDGE_CURVE('',#384,#384,#457,.T.);
#434=EDGE_CURVE('',#369,#364,#458,.T.);
#435=EDGE_CURVE('',#359,#355,#459,.T.);
#436=EDGE_CURVE('',#385,#385,#460,.T.);
#437=CIRCLE('',#462,3.1);
#438=CIRCLE('',#463,3.1);
#439=CIRCLE('',#466,3.1);
#440=CIRCLE('',#469,1.65);
#441=CIRCLE('',#472,3.1);
#442=CIRCLE('',#475,1.65);
#443=CIRCLE('',#476,1.65);
#444=CIRCLE('',#477,1.65);
#445=CIRCLE('',#478,1.65);
#446=CIRCLE('',#479,1.65);
#447=CIRCLE('',#480,1.65);
#448=CIRCLE('',#481,1.65);
#449=CIRCLE('',#482,3.);
#450=CIRCLE('',#483,3.);
#451=CIRCLE('',#485,1.65);
#452=CIRCLE('',#486,1.65);
#453=CIRCLE('',#487,1.65);
#454=CIRCLE('',#488,1.65);
#455=CIRCLE('',#489,1.65);
#456=CIRCLE('',#490,1.65);
#457=CIRCLE('',#491,1.65);
#458=CIRCLE('',#492,3.);
#459=CIRCLE('',#493,3.);
#460=CIRCLE('',#506,1.65);
#461=AXIS2_PLACEMENT_3D('',#631,#509,#510);
#462=AXIS2_PLACEMENT_3D('',#632,#511,#512);
#463=AXIS2_PLACEMENT_3D('',#634,#513,#514);
#464=AXIS2_PLACEMENT_3D('',#644,#519,#520);
#465=AXIS2_PLACEMENT_3D('',#650,#524,#525);
#466=AXIS2_PLACEMENT_3D('',#651,#526,#527);
#467=AXIS2_PLACEMENT_3D('',#658,#531,#532);
#468=AXIS2_PLACEMENT_3D('',#667,#537,#538);
#469=AXIS2_PLACEMENT_3D('',#668,#539,#540);
#470=AXIS2_PLACEMENT_3D('',#675,#544,#545);
#471=AXIS2_PLACEMENT_3D('',#681,#549,#550);
#472=AXIS2_PLACEMENT_3D('',#682,#551,#552);
#473=AXIS2_PLACEMENT_3D('',#692,#557,#558);
#474=AXIS2_PLACEMENT_3D('',#695,#561,#562);
#475=AXIS2_PLACEMENT_3D('',#696,#563,#564);
#476=AXIS2_PLACEMENT_3D('',#698,#565,#566);
#477=AXIS2_PLACEMENT_3D('',#700,#567,#568);
#478=AXIS2_PLACEMENT_3D('',#702,#569,#570);
#479=AXIS2_PLACEMENT_3D('',#704,#571,#572);
#480=AXIS2_PLACEMENT_3D('',#706,#573,#574);
#481=AXIS2_PLACEMENT_3D('',#708,#575,#576);
#482=AXIS2_PLACEMENT_3D('',#710,#577,#578);
#483=AXIS2_PLACEMENT_3D('',#711,#579,#580);
#484=AXIS2_PLACEMENT_3D('',#712,#581,#582);
#485=AXIS2_PLACEMENT_3D('',#713,#583,#584);
#486=AXIS2_PLACEMENT_3D('',#715,#585,#586);
#487=AXIS2_PLACEMENT_3D('',#717,#587,#588);
#488=AXIS2_PLACEMENT_3D('',#719,#589,#590);
#489=AXIS2_PLACEMENT_3D('',#721,#591,#592);
#490=AXIS2_PLACEMENT_3D('',#723,#593,#594);
#491=AXIS2_PLACEMENT_3D('',#725,#595,#596);
#492=AXIS2_PLACEMENT_3D('',#727,#597,#598);
#493=AXIS2_PLACEMENT_3D('',#728,#599,#600);
#494=AXIS2_PLACEMENT_3D('',#729,#601,#602);
#495=AXIS2_PLACEMENT_3D('',#730,#603,#604);
#496=AXIS2_PLACEMENT_3D('',#731,#605,#606);
#497=AXIS2_PLACEMENT_3D('',#732,#607,#608);
#498=AXIS2_PLACEMENT_3D('',#733,#609,#610);
#499=AXIS2_PLACEMENT_3D('',#734,#611,#612);
#500=AXIS2_PLACEMENT_3D('',#735,#613,#614);
#501=AXIS2_PLACEMENT_3D('',#736,#615,#616);
#502=AXIS2_PLACEMENT_3D('',#737,#617,#618);
#503=AXIS2_PLACEMENT_3D('',#738,#619,#620);
#504=AXIS2_PLACEMENT_3D('',#739,#621,#622);
#505=AXIS2_PLACEMENT_3D('',#740,#623,#624);
#506=AXIS2_PLACEMENT_3D('',#741,#625,#626);
#507=AXIS2_PLACEMENT_3D('',#744,#627,#628);
#508=AXIS2_PLACEMENT_3D('',#745,#629,#630);
#509=DIRECTION('',(0.,0.,1.));
#510=DIRECTION('',(1.,0.,0.));
#511=DIRECTION('',(0.,0.,1.));
#512=DIRECTION('',(1.,0.,0.));
#513=DIRECTION('',(0.,0.,1.));
#514=DIRECTION('',(1.,0.,0.));
#515=DIRECTION('',(-1.,0.,0.));
#516=DIRECTION('',(0.,-1.,0.));
#517=DIRECTION('',(-1.,0.,0.));
#518=DIRECTION('',(0.,-1.,0.));
#519=DIRECTION('',(0.,0.,1.));
#520=DIRECTION('',(1.,0.,0.));
#521=DIRECTION('',(0.,0.,1.));
#522=DIRECTION('',(0.,-1.,0.));
#523=DIRECTION('',(0.,0.,1.));
#524=DIRECTION('',(1.,0.,0.));
#525=DIRECTION('',(0.,0.,-1.));
#526=DIRECTION('',(0.,0.,-1.));
#527=DIRECTION('',(-1.,0.,0.));
#528=DIRECTION('',(1.,0.,0.));
#529=DIRECTION('',(0.,1.,0.));
#530=DIRECTION('',(1.,0.,0.));
#531=DIRECTION('',(0.,0.,-1.));
#532=DIRECTION('',(-1.,0.,0.));
#533=DIRECTION('',(3.33600668457078E-17,0.,1.));
#534=DIRECTION('',(0.,-1.,0.));
#535=DIRECTION('',(3.33600668457078E-17,0.,1.));
#536=DIRECTION('',(0.,-1.,0.));
#537=DIRECTION('',(1.,0.,-3.33600668457078E-17));
#538=DIRECTION('',(-3.29597460435593E-17,0.,-1.));
#539=DIRECTION('',(0.,0.,-1.));
#540=DIRECTION('',(-1.,0.,0.));
#541=DIRECTION('',(1.,0.,0.));
#542=DIRECTION('',(0.,-1.,0.));
#543=DIRECTION('',(1.,0.,0.));
#544=DIRECTION('',(0.,0.,-1.));
#545=DIRECTION('',(-1.,0.,0.));
#546=DIRECTION('',(-3.33600668457078E-17,1.17797309305681E-33,-1.));
#547=DIRECTION('',(0.,1.,0.));
#548=DIRECTION('',(-3.33600668457078E-17,1.17797309305681E-33,-1.));
#549=DIRECTION('',(-1.,0.,3.33600668457078E-17));
#550=DIRECTION('',(3.29597460435593E-17,0.,1.));
#551=DIRECTION('',(0.,0.,-1.));
#552=DIRECTION('',(-1.,0.,0.));
#553=DIRECTION('',(1.,0.,0.));
#554=DIRECTION('',(0.,-1.,0.));
#555=DIRECTION('',(1.,0.,0.));
#556=DIRECTION('',(0.,-1.,0.));
#557=DIRECTION('',(0.,0.,-1.));
#558=DIRECTION('',(-1.,0.,0.));
#559=DIRECTION('',(0.,0.,-1.));
#560=DIRECTION('',(0.,0.,-1.));
#561=DIRECTION('',(-1.,0.,0.));
#562=DIRECTION('',(0.,0.,1.));
#563=DIRECTION('',(0.,1.,0.));
#564=DIRECTION('',(0.,0.,0.999999999999999));
#565=DIRECTION('',(0.,1.,0.));
#566=DIRECTION('',(0.,0.,0.999999999999999));
#567=DIRECTION('',(0.,1.,0.));
#568=DIRECTION('',(0.,0.,0.999999999999999));
#569=DIRECTION('',(0.,-1.,0.));
#570=DIRECTION('',(0.,0.,-1.00000000000001));
#571=DIRECTION('',(0.,-1.,0.));
#572=DIRECTION('',(0.,0.,-0.999999999999999));
#573=DIRECTION('',(0.,1.,0.));
#574=DIRECTION('',(0.,0.,1.00000000000001));
#575=DIRECTION('',(0.,1.,0.));
#576=DIRECTION('',(0.,0.,1.00000000000001));
#577=DIRECTION('',(0.,-1.,0.));
#578=DIRECTION('',(0.,0.,1.));
#579=DIRECTION('',(0.,-1.,0.));
#580=DIRECTION('',(0.,0.,1.));
#581=DIRECTION('',(0.,1.,0.));
#582=DIRECTION('',(0.,0.,1.));
#583=DIRECTION('',(0.,1.,0.));
#584=DIRECTION('',(0.,0.,0.999999999999999));
#585=DIRECTION('',(0.,1.,0.));
#586=DIRECTION('',(0.,0.,0.999999999999999));
#587=DIRECTION('',(0.,1.,0.));
#588=DIRECTION('',(0.,0.,0.999999999999999));
#589=DIRECTION('',(0.,1.,0.));
#590=DIRECTION('',(0.,0.,1.00000000000001));
#591=DIRECTION('',(0.,1.,0.));
#592=DIRECTION('',(0.,0.,1.00000000000001));
#593=DIRECTION('',(0.,1.,0.));
#594=DIRECTION('',(0.,0.,1.00000000000001));
#595=DIRECTION('',(0.,1.,0.));
#596=DIRECTION('',(0.,0.,1.00000000000001));
#597=DIRECTION('',(0.,1.,0.));
#598=DIRECTION('',(0.,0.,1.));
#599=DIRECTION('',(0.,1.,0.));
#600=DIRECTION('',(0.,0.,1.));
#601=DIRECTION('',(0.,1.,0.));
#602=DIRECTION('',(0.,0.,1.));
#603=DIRECTION('',(0.,1.,0.));
#604=DIRECTION('',(0.,0.,1.));
#605=DIRECTION('',(0.,1.,0.));
#606=DIRECTION('',(0.,0.,1.));
#607=DIRECTION('',(0.,1.,0.));
#608=DIRECTION('',(0.,0.,1.00000000000001));
#609=DIRECTION('',(0.,1.,0.));
#610=DIRECTION('',(0.,0.,1.00000000000001));
#611=DIRECTION('',(0.,0.,1.));
#612=DIRECTION('',(1.,0.,0.));
#613=DIRECTION('',(0.,0.,1.));
#614=DIRECTION('',(1.,0.,0.));
#615=DIRECTION('',(0.,-1.,0.));
#616=DIRECTION('',(0.,0.,-0.999999999999999));
#617=DIRECTION('',(0.,-1.,0.));
#618=DIRECTION('',(0.,0.,-1.00000000000001));
#619=DIRECTION('',(0.,1.,0.));
#620=DIRECTION('',(0.,0.,0.999999999999999));
#621=DIRECTION('',(0.,1.,0.));
#622=DIRECTION('',(0.,0.,0.999999999999999));
#623=DIRECTION('',(0.,1.,0.));
#624=DIRECTION('',(0.,0.,0.999999999999999));
#625=DIRECTION('',(0.,0.,1.));
#626=DIRECTION('',(-1.,0.,0.));
#627=DIRECTION('',(0.,0.,1.));
#628=DIRECTION('',(1.,0.,4.99821437396034E-17));
#629=DIRECTION('',(0.,0.,-1.));
#630=DIRECTION('',(-1.,0.,0.));
#631=CARTESIAN_POINT('',(0.,0.,0.));
#632=CARTESIAN_POINT('',(14.9999999999999,0.,35.));
#633=CARTESIAN_POINT('',(18.0999999999999,0.,35.));
#634=CARTESIAN_POINT('',(-15.0000000000001,0.,35.));
#635=CARTESIAN_POINT('',(-11.9000000000001,0.,35.));
#636=CARTESIAN_POINT('',(23.,-5.,35.));
#637=CARTESIAN_POINT('',(23.,-5.,35.));
#638=CARTESIAN_POINT('',(-23.,-5.,35.));
#639=CARTESIAN_POINT('',(-23.,5.,35.));
#640=CARTESIAN_POINT('',(-23.,5.,35.));
#641=CARTESIAN_POINT('',(23.,5.,35.));
#642=CARTESIAN_POINT('',(23.,5.,35.));
#643=CARTESIAN_POINT('',(23.,5.,35.));
#644=CARTESIAN_POINT('',(23.,5.,35.));
#645=CARTESIAN_POINT('',(-23.,-5.,35.));
#646=CARTESIAN_POINT('',(-23.,-5.,41.));
#647=CARTESIAN_POINT('',(-23.,5.,41.));
#648=CARTESIAN_POINT('',(-23.,5.,41.));
#649=CARTESIAN_POINT('',(-23.,5.,35.));
#650=CARTESIAN_POINT('',(-23.,5.,35.));
#651=CARTESIAN_POINT('',(-15.0000000000001,0.,41.));
#652=CARTESIAN_POINT('',(-18.1000000000001,0.,41.));
#653=CARTESIAN_POINT('',(-23.,-5.,41.));
#654=CARTESIAN_POINT('',(-9.00000000000001,-5.,41.));
#655=CARTESIAN_POINT('',(-9.00000000000001,5.,41.));
#656=CARTESIAN_POINT('',(-9.00000000000001,5.,41.));
#657=CARTESIAN_POINT('',(-23.,5.,41.));
#658=CARTESIAN_POINT('',(-23.,5.,41.));
#659=CARTESIAN_POINT('',(-6.00000000000001,5.,41.));
#660=CARTESIAN_POINT('',(-6.00000000000001,5.,44.));
#661=CARTESIAN_POINT('',(-6.00000000000001,5.,233.));
#662=CARTESIAN_POINT('',(-6.00000000000001,-5.,44.));
#663=CARTESIAN_POINT('',(-6.00000000000001,-5.,44.));
#664=CARTESIAN_POINT('',(-6.00000000000001,-5.,41.));
#665=CARTESIAN_POINT('',(-6.00000000000001,-5.,233.));
#666=CARTESIAN_POINT('',(-6.00000000000001,5.,233.));
#667=CARTESIAN_POINT('',(-6.00000000000001,5.,41.));
#668=CARTESIAN_POINT('',(-7.99360577730113E-15,8.88178419700125E-16,233.));
#669=CARTESIAN_POINT('',(-1.65000000000001,8.88178419700125E-16,233.));
#670=CARTESIAN_POINT('',(-6.00000000000001,-5.,233.));
#671=CARTESIAN_POINT('',(5.99999999999999,-5.,233.));
#672=CARTESIAN_POINT('',(5.99999999999999,5.,233.));
#673=CARTESIAN_POINT('',(5.99999999999999,5.,233.));
#674=CARTESIAN_POINT('',(-6.00000000000001,5.,233.));
#675=CARTESIAN_POINT('',(-6.00000000000001,5.,233.));
#676=CARTESIAN_POINT('',(5.99999999999999,-5.,223.));
#677=CARTESIAN_POINT('',(5.99999999999999,-5.,44.));
#678=CARTESIAN_POINT('',(5.99999999999999,5.,44.));
#679=CARTESIAN_POINT('',(5.99999999999999,5.,44.));
#680=CARTESIAN_POINT('',(5.99999999999999,5.,223.));
#681=CARTESIAN_POINT('',(5.99999999999999,5.,223.));
#682=CARTESIAN_POINT('',(14.9999999999999,0.,41.));
#683=CARTESIAN_POINT('',(11.8999999999999,0.,41.));
#684=CARTESIAN_POINT('',(5.99999999999999,5.,41.));
#685=CARTESIAN_POINT('',(8.99999999999999,5.,41.));
#686=CARTESIAN_POINT('',(23.,5.,41.));
#687=CARTESIAN_POINT('',(8.99999999999999,-5.,41.));
#688=CARTESIAN_POINT('',(8.99999999999999,-5.,41.));
#689=CARTESIAN_POINT('',(5.99999999999999,-5.,41.));
#690=CARTESIAN_POINT('',(23.,-5.,41.));
#691=CARTESIAN_POINT('',(23.,5.,41.));
#692=CARTESIAN_POINT('',(5.99999999999999,5.,41.));
#693=CARTESIAN_POINT('',(23.,-5.,41.));
#694=CARTESIAN_POINT('',(23.,5.,41.));
#695=CARTESIAN_POINT('',(23.,5.,41.));
#696=CARTESIAN_POINT('',(-1.4210854715202E-14,5.,112.));
#697=CARTESIAN_POINT('',(-1.4210854715202E-14,5.,113.65));
#698=CARTESIAN_POINT('',(-1.4210854715202E-14,5.,92.));
#699=CARTESIAN_POINT('',(-1.4210854715202E-14,5.,93.65));
#700=CARTESIAN_POINT('',(-1.4210854715202E-14,5.,65.));
#701=CARTESIAN_POINT('',(-1.4210854715202E-14,5.,66.65));
#702=CARTESIAN_POINT('',(-2.72004641033163E-14,5.,184.));
#703=CARTESIAN_POINT('',(-2.72004641033163E-14,5.,182.35));
#704=CARTESIAN_POINT('',(-1.4210854715202E-14,5.,126.));
#705=CARTESIAN_POINT('',(-1.4210854715202E-14,5.,124.35));
#706=CARTESIAN_POINT('',(-4.2632564145606E-14,5.,219.5));
#707=CARTESIAN_POINT('',(-4.2632564145606E-14,5.,221.15));
#708=CARTESIAN_POINT('',(-2.8421709430404E-14,5.,152.));
#709=CARTESIAN_POINT('',(-2.8421709430404E-14,5.,153.65));
#710=CARTESIAN_POINT('',(-9.00000000000001,5.,44.));
#711=CARTESIAN_POINT('',(8.99999999999999,5.,44.));
#712=CARTESIAN_POINT('',(0.,5.,0.));
#713=CARTESIAN_POINT('',(-1.4210854715202E-14,-5.,112.));
#714=CARTESIAN_POINT('',(-1.4210854715202E-14,-5.,113.65));
#715=CARTESIAN_POINT('',(-1.4210854715202E-14,-5.,92.));
#716=CARTESIAN_POINT('',(-1.4210854715202E-14,-5.,93.65));
#717=CARTESIAN_POINT('',(-1.4210854715202E-14,-5.,65.));
#718=CARTESIAN_POINT('',(-1.4210854715202E-14,-5.,66.65));
#719=CARTESIAN_POINT('',(-2.72004641033163E-14,-5.,184.));
#720=CARTESIAN_POINT('',(-2.72004641033163E-14,-5.,185.65));
#721=CARTESIAN_POINT('',(-1.4210854715202E-14,-5.,126.));
#722=CARTESIAN_POINT('',(-1.4210854715202E-14,-5.,127.65));
#723=CARTESIAN_POINT('',(-4.2632564145606E-14,-5.,219.5));
#724=CARTESIAN_POINT('',(-4.2632564145606E-14,-5.,221.15));
#725=CARTESIAN_POINT('',(-2.8421709430404E-14,-5.,152.));
#726=CARTESIAN_POINT('',(-2.8421709430404E-14,-5.,153.65));
#727=CARTESIAN_POINT('',(8.99999999999999,-5.,44.));
#728=CARTESIAN_POINT('',(-9.00000000000001,-5.,44.));
#729=CARTESIAN_POINT('',(0.,-5.,0.));
#730=CARTESIAN_POINT('',(8.99999999999999,5.,44.));
#731=CARTESIAN_POINT('',(-9.00000000000001,5.,44.));
#732=CARTESIAN_POINT('',(-2.8421709430404E-14,-5.,152.));
#733=CARTESIAN_POINT('',(-4.2632564145606E-14,-5.,219.5));
#734=CARTESIAN_POINT('',(-15.0000000000001,0.,35.));
#735=CARTESIAN_POINT('',(14.9999999999999,0.,35.));
#736=CARTESIAN_POINT('',(-1.4210854715202E-14,5.,126.));
#737=CARTESIAN_POINT('',(-2.72004641033163E-14,5.,184.));
#738=CARTESIAN_POINT('',(-1.4210854715202E-14,-5.,65.));
#739=CARTESIAN_POINT('',(-1.4210854715202E-14,-5.,92.));
#740=CARTESIAN_POINT('',(-1.4210854715202E-14,-5.,112.));
#741=CARTESIAN_POINT('',(-7.99360577730113E-15,8.88178419700125E-16,225.));
#742=CARTESIAN_POINT('',(-1.65000000000001,8.88178419700125E-16,225.));
#743=CARTESIAN_POINT('',(-7.99360577730113E-15,8.88178419700125E-16,224.008579978605));
#744=CARTESIAN_POINT('',(-7.99360577730113E-15,8.88178419700125E-16,225.));
#745=CARTESIAN_POINT('',(-7.99360577730113E-15,8.88178419700125E-16,233.));
#746=MECHANICAL_DESIGN_GEOMETRIC_PRESENTATION_REPRESENTATION('',(#32),#747);
#747=(
GEOMETRIC_REPRESENTATION_CONTEXT(3)
GLOBAL_UNCERTAINTY_ASSIGNED_CONTEXT((#748))
GLOBAL_UNIT_ASSIGNED_CONTEXT((#754,#750,#749))
REPRESENTATION_CONTEXT('190718_T_support','TOP_LEVEL_ASSEMBLY_PART')
);
#748=UNCERTAINTY_MEASURE_WITH_UNIT(LENGTH_MEASURE(2.E-5),#754,
'DISTANCE_ACCURACY_VALUE','Maximum Tolerance applied to model');
#749=(
NAMED_UNIT(*)
SI_UNIT($,.STERADIAN.)
SOLID_ANGLE_UNIT()
);
#750=(
CONVERSION_BASED_UNIT('DEGREE',#752)
NAMED_UNIT(#751)
PLANE_ANGLE_UNIT()
);
#751=DIMENSIONAL_EXPONENTS(0.,0.,0.,0.,0.,0.,0.);
#752=PLANE_ANGLE_MEASURE_WITH_UNIT(PLANE_ANGLE_MEASURE(0.0174532925),#753);
#753=(
NAMED_UNIT(*)
PLANE_ANGLE_UNIT()
SI_UNIT($,.RADIAN.)
);
#754=(
LENGTH_UNIT()
NAMED_UNIT(*)
SI_UNIT(.MILLI.,.METRE.)
);
ENDSEC;
END-ISO-10303-21;
