ISO-10303-21;
HEADER;
/* Generated by software containing ST-Developer
 * from STEP Tools, Inc. (www.steptools.com) 
 */
/* OPTION: using custom schema-name function */

FILE_DESCRIPTION(
/* description */ (''),
/* implementation_level */ '2;1');

FILE_NAME(
/* name */ '190717_HV_bracket_top&bot_v3.stp',
/* time_stamp */ '2019-07-17T13:08:06+02:00',
/* author */ (''),
/* organization */ (''),
/* preprocessor_version */ 'ST-DEVELOPER v16.7',
/* originating_system */ 'SIEMENS PLM Software NX 12.0',
/* authorisation */ '');

FILE_SCHEMA (('AUTOMOTIVE_DESIGN { 1 0 10303 214 3 1 1 1 }'));
ENDSEC;

DATA;
#10=PROPERTY_DEFINITION_REPRESENTATION(#14,#12);
#11=PROPERTY_DEFINITION_REPRESENTATION(#15,#13);
#12=REPRESENTATION('',(#16),#603);
#13=REPRESENTATION('',(#17),#603);
#14=PROPERTY_DEFINITION('pmi validation property','',#21);
#15=PROPERTY_DEFINITION('pmi validation property','',#21);
#16=VALUE_REPRESENTATION_ITEM('number of annotations',COUNT_MEASURE(0.));
#17=VALUE_REPRESENTATION_ITEM('number of views',COUNT_MEASURE(0.));
#18=SHAPE_REPRESENTATION_RELATIONSHIP('None',
'relationship between bmas23D4C2D8s0q6-None and bmas23D4C2D8s0q6-None',
#30,#19);
#19=ADVANCED_BREP_SHAPE_REPRESENTATION('bmas23D4C2D8s0q6-None',(#108,#109),
#603);
#20=SHAPE_DEFINITION_REPRESENTATION(#21,#30);
#21=PRODUCT_DEFINITION_SHAPE('','',#22);
#22=PRODUCT_DEFINITION(' ','',#24,#23);
#23=PRODUCT_DEFINITION_CONTEXT('part definition',#29,'design');
#24=PRODUCT_DEFINITION_FORMATION_WITH_SPECIFIED_SOURCE(' ',' ',#26,
 .NOT_KNOWN.);
#25=PRODUCT_RELATED_PRODUCT_CATEGORY('part','',(#26));
#26=PRODUCT('bmas23D4C2D8s0q6','bmas23D4C2D8s0q6',' ',(#27));
#27=PRODUCT_CONTEXT(' ',#29,'mechanical');
#28=APPLICATION_PROTOCOL_DEFINITION('international standard',
'automotive_design',2010,#29);
#29=APPLICATION_CONTEXT(
'core data for automotive mechanical design processes');
#30=SHAPE_REPRESENTATION('bmas23D4C2D8s0q6-None',(#372),#603);
#31=FACE_OUTER_BOUND('',#184,.T.);
#32=FACE_OUTER_BOUND('',#185,.T.);
#33=FACE_OUTER_BOUND('',#186,.T.);
#34=FACE_OUTER_BOUND('',#187,.T.);
#35=FACE_OUTER_BOUND('',#188,.T.);
#36=FACE_OUTER_BOUND('',#189,.T.);
#37=FACE_OUTER_BOUND('',#190,.T.);
#38=FACE_OUTER_BOUND('',#191,.T.);
#39=FACE_OUTER_BOUND('',#192,.T.);
#40=FACE_OUTER_BOUND('',#193,.T.);
#41=FACE_OUTER_BOUND('',#194,.T.);
#42=FACE_OUTER_BOUND('',#195,.T.);
#43=LINE('',#525,#67);
#44=LINE('',#530,#68);
#45=LINE('',#536,#69);
#46=LINE('',#540,#70);
#47=LINE('',#541,#71);
#48=LINE('',#546,#72);
#49=LINE('',#552,#73);
#50=LINE('',#557,#74);
#51=LINE('',#560,#75);
#52=LINE('',#565,#76);
#53=LINE('',#568,#77);
#54=LINE('',#573,#78);
#55=LINE('',#577,#79);
#56=LINE('',#578,#80);
#57=LINE('',#580,#81);
#58=LINE('',#581,#82);
#59=LINE('',#585,#83);
#60=LINE('',#586,#84);
#61=LINE('',#588,#85);
#62=LINE('',#590,#86);
#63=LINE('',#593,#87);
#64=LINE('',#594,#88);
#65=LINE('',#596,#89);
#66=LINE('',#598,#90);
#67=VECTOR('',#430,1.);
#68=VECTOR('',#433,1.);
#69=VECTOR('',#438,1.);
#70=VECTOR('',#441,1.);
#71=VECTOR('',#442,1.);
#72=VECTOR('',#445,1.);
#73=VECTOR('',#452,1.);
#74=VECTOR('',#455,1.);
#75=VECTOR('',#458,1.);
#76=VECTOR('',#461,1.);
#77=VECTOR('',#464,1.);
#78=VECTOR('',#467,1.);
#79=VECTOR('',#472,1.);
#80=VECTOR('',#473,1.);
#81=VECTOR('',#476,1.);
#82=VECTOR('',#477,1.);
#83=VECTOR('',#484,1.);
#84=VECTOR('',#485,1.);
#85=VECTOR('',#488,1.);
#86=VECTOR('',#491,1.);
#87=VECTOR('',#496,1.);
#88=VECTOR('',#497,1.);
#89=VECTOR('',#500,1.);
#90=VECTOR('',#503,1.);
#91=PRESENTATION_LAYER_ASSIGNMENT('1','Layer 1',(#108,#109));
#92=STYLED_ITEM('',(#94),#108);
#93=STYLED_ITEM('',(#95),#109);
#94=PRESENTATION_STYLE_ASSIGNMENT((#96));
#95=PRESENTATION_STYLE_ASSIGNMENT((#97));
#96=SURFACE_STYLE_USAGE(.BOTH.,#98);
#97=SURFACE_STYLE_USAGE(.BOTH.,#99);
#98=SURFACE_SIDE_STYLE('',(#100));
#99=SURFACE_SIDE_STYLE('',(#101));
#100=SURFACE_STYLE_FILL_AREA(#102);
#101=SURFACE_STYLE_FILL_AREA(#103);
#102=FILL_AREA_STYLE('',(#104));
#103=FILL_AREA_STYLE('',(#105));
#104=FILL_AREA_STYLE_COLOUR('',#106);
#105=FILL_AREA_STYLE_COLOUR('',#107);
#106=COLOUR_RGB('Smoke Gray',0.694102388036927,0.694102388036927,0.694102388036927);
#107=COLOUR_RGB('Medium Steel',0.596063172350652,0.666666666666667,0.686259250782025);
#108=MANIFOLD_SOLID_BREP('',#110);
#109=MANIFOLD_SOLID_BREP('',#111);
#110=CLOSED_SHELL('',(#121,#122,#123,#124));
#111=CLOSED_SHELL('',(#125,#126,#127,#128,#129,#130,#131,#132,#133,#134,
#135,#136,#137,#138,#139));
#112=CYLINDRICAL_SURFACE('',#379,2.095);
#113=CYLINDRICAL_SURFACE('',#380,1.05);
#114=CYLINDRICAL_SURFACE('',#399,6.);
#115=CYLINDRICAL_SURFACE('',#400,6.);
#116=CYLINDRICAL_SURFACE('',#402,2.05);
#117=CYLINDRICAL_SURFACE('',#404,2.05);
#118=CYLINDRICAL_SURFACE('',#405,2.05);
#119=CYLINDRICAL_SURFACE('',#407,2.05);
#120=CYLINDRICAL_SURFACE('',#409,2.1);
#121=ADVANCED_FACE('',(#150,#151),#140,.T.);
#122=ADVANCED_FACE('',(#152,#153),#141,.T.);
#123=ADVANCED_FACE('',(#154,#155),#112,.T.);
#124=ADVANCED_FACE('',(#156,#157),#113,.F.);
#125=ADVANCED_FACE('',(#158,#159,#160,#161),#142,.T.);
#126=ADVANCED_FACE('',(#162,#163,#164,#165),#143,.F.);
#127=ADVANCED_FACE('',(#31),#144,.T.);
#128=ADVANCED_FACE('',(#32),#145,.F.);
#129=ADVANCED_FACE('',(#33),#114,.T.);
#130=ADVANCED_FACE('',(#34),#115,.T.);
#131=ADVANCED_FACE('',(#35),#146,.F.);
#132=ADVANCED_FACE('',(#36),#116,.F.);
#133=ADVANCED_FACE('',(#37),#147,.F.);
#134=ADVANCED_FACE('',(#38),#117,.F.);
#135=ADVANCED_FACE('',(#39),#118,.F.);
#136=ADVANCED_FACE('',(#40),#148,.T.);
#137=ADVANCED_FACE('',(#41),#119,.F.);
#138=ADVANCED_FACE('',(#42),#149,.T.);
#139=ADVANCED_FACE('',(#166,#167),#120,.F.);
#140=PLANE('',#375);
#141=PLANE('',#378);
#142=PLANE('',#388);
#143=PLANE('',#396);
#144=PLANE('',#397);
#145=PLANE('',#398);
#146=PLANE('',#401);
#147=PLANE('',#403);
#148=PLANE('',#406);
#149=PLANE('',#408);
#150=FACE_BOUND('',#168,.T.);
#151=FACE_BOUND('',#169,.T.);
#152=FACE_BOUND('',#170,.T.);
#153=FACE_BOUND('',#171,.T.);
#154=FACE_BOUND('',#172,.T.);
#155=FACE_BOUND('',#173,.T.);
#156=FACE_BOUND('',#174,.T.);
#157=FACE_BOUND('',#175,.T.);
#158=FACE_BOUND('',#176,.T.);
#159=FACE_BOUND('',#177,.T.);
#160=FACE_BOUND('',#178,.T.);
#161=FACE_BOUND('',#179,.T.);
#162=FACE_BOUND('',#180,.T.);
#163=FACE_BOUND('',#181,.T.);
#164=FACE_BOUND('',#182,.T.);
#165=FACE_BOUND('',#183,.T.);
#166=FACE_BOUND('',#196,.T.);
#167=FACE_BOUND('',#197,.T.);
#168=EDGE_LOOP('',(#198));
#169=EDGE_LOOP('',(#199));
#170=EDGE_LOOP('',(#200));
#171=EDGE_LOOP('',(#201));
#172=EDGE_LOOP('',(#202));
#173=EDGE_LOOP('',(#203));
#174=EDGE_LOOP('',(#204));
#175=EDGE_LOOP('',(#205));
#176=EDGE_LOOP('',(#206));
#177=EDGE_LOOP('',(#207,#208,#209,#210));
#178=EDGE_LOOP('',(#211,#212,#213,#214));
#179=EDGE_LOOP('',(#215,#216,#217,#218));
#180=EDGE_LOOP('',(#219));
#181=EDGE_LOOP('',(#220,#221,#222,#223));
#182=EDGE_LOOP('',(#224,#225,#226,#227));
#183=EDGE_LOOP('',(#228,#229,#230,#231));
#184=EDGE_LOOP('',(#232,#233,#234,#235));
#185=EDGE_LOOP('',(#236,#237,#238,#239));
#186=EDGE_LOOP('',(#240,#241,#242,#243));
#187=EDGE_LOOP('',(#244,#245,#246,#247));
#188=EDGE_LOOP('',(#248,#249,#250,#251));
#189=EDGE_LOOP('',(#252,#253,#254,#255));
#190=EDGE_LOOP('',(#256,#257,#258,#259));
#191=EDGE_LOOP('',(#260,#261,#262,#263));
#192=EDGE_LOOP('',(#264,#265,#266,#267));
#193=EDGE_LOOP('',(#268,#269,#270,#271));
#194=EDGE_LOOP('',(#272,#273,#274,#275));
#195=EDGE_LOOP('',(#276,#277,#278,#279));
#196=EDGE_LOOP('',(#280));
#197=EDGE_LOOP('',(#281));
#198=ORIENTED_EDGE('',*,*,#312,.T.);
#199=ORIENTED_EDGE('',*,*,#313,.F.);
#200=ORIENTED_EDGE('',*,*,#314,.F.);
#201=ORIENTED_EDGE('',*,*,#315,.F.);
#202=ORIENTED_EDGE('',*,*,#313,.T.);
#203=ORIENTED_EDGE('',*,*,#315,.T.);
#204=ORIENTED_EDGE('',*,*,#314,.T.);
#205=ORIENTED_EDGE('',*,*,#312,.F.);
#206=ORIENTED_EDGE('',*,*,#316,.F.);
#207=ORIENTED_EDGE('',*,*,#317,.F.);
#208=ORIENTED_EDGE('',*,*,#318,.F.);
#209=ORIENTED_EDGE('',*,*,#319,.F.);
#210=ORIENTED_EDGE('',*,*,#320,.F.);
#211=ORIENTED_EDGE('',*,*,#321,.T.);
#212=ORIENTED_EDGE('',*,*,#322,.T.);
#213=ORIENTED_EDGE('',*,*,#323,.T.);
#214=ORIENTED_EDGE('',*,*,#324,.F.);
#215=ORIENTED_EDGE('',*,*,#325,.T.);
#216=ORIENTED_EDGE('',*,*,#326,.T.);
#217=ORIENTED_EDGE('',*,*,#327,.T.);
#218=ORIENTED_EDGE('',*,*,#328,.T.);
#219=ORIENTED_EDGE('',*,*,#329,.T.);
#220=ORIENTED_EDGE('',*,*,#330,.T.);
#221=ORIENTED_EDGE('',*,*,#331,.T.);
#222=ORIENTED_EDGE('',*,*,#332,.T.);
#223=ORIENTED_EDGE('',*,*,#333,.T.);
#224=ORIENTED_EDGE('',*,*,#334,.F.);
#225=ORIENTED_EDGE('',*,*,#335,.T.);
#226=ORIENTED_EDGE('',*,*,#336,.T.);
#227=ORIENTED_EDGE('',*,*,#337,.T.);
#228=ORIENTED_EDGE('',*,*,#338,.F.);
#229=ORIENTED_EDGE('',*,*,#339,.F.);
#230=ORIENTED_EDGE('',*,*,#340,.F.);
#231=ORIENTED_EDGE('',*,*,#341,.F.);
#232=ORIENTED_EDGE('',*,*,#336,.F.);
#233=ORIENTED_EDGE('',*,*,#342,.T.);
#234=ORIENTED_EDGE('',*,*,#324,.T.);
#235=ORIENTED_EDGE('',*,*,#343,.T.);
#236=ORIENTED_EDGE('',*,*,#322,.F.);
#237=ORIENTED_EDGE('',*,*,#344,.T.);
#238=ORIENTED_EDGE('',*,*,#334,.T.);
#239=ORIENTED_EDGE('',*,*,#345,.T.);
#240=ORIENTED_EDGE('',*,*,#335,.F.);
#241=ORIENTED_EDGE('',*,*,#344,.F.);
#242=ORIENTED_EDGE('',*,*,#321,.F.);
#243=ORIENTED_EDGE('',*,*,#342,.F.);
#244=ORIENTED_EDGE('',*,*,#337,.F.);
#245=ORIENTED_EDGE('',*,*,#343,.F.);
#246=ORIENTED_EDGE('',*,*,#323,.F.);
#247=ORIENTED_EDGE('',*,*,#345,.F.);
#248=ORIENTED_EDGE('',*,*,#317,.T.);
#249=ORIENTED_EDGE('',*,*,#346,.T.);
#250=ORIENTED_EDGE('',*,*,#330,.F.);
#251=ORIENTED_EDGE('',*,*,#347,.F.);
#252=ORIENTED_EDGE('',*,*,#320,.T.);
#253=ORIENTED_EDGE('',*,*,#348,.T.);
#254=ORIENTED_EDGE('',*,*,#331,.F.);
#255=ORIENTED_EDGE('',*,*,#346,.F.);
#256=ORIENTED_EDGE('',*,*,#319,.T.);
#257=ORIENTED_EDGE('',*,*,#349,.T.);
#258=ORIENTED_EDGE('',*,*,#332,.F.);
#259=ORIENTED_EDGE('',*,*,#348,.F.);
#260=ORIENTED_EDGE('',*,*,#318,.T.);
#261=ORIENTED_EDGE('',*,*,#347,.T.);
#262=ORIENTED_EDGE('',*,*,#333,.F.);
#263=ORIENTED_EDGE('',*,*,#349,.F.);
#264=ORIENTED_EDGE('',*,*,#326,.F.);
#265=ORIENTED_EDGE('',*,*,#350,.T.);
#266=ORIENTED_EDGE('',*,*,#339,.T.);
#267=ORIENTED_EDGE('',*,*,#351,.F.);
#268=ORIENTED_EDGE('',*,*,#327,.F.);
#269=ORIENTED_EDGE('',*,*,#351,.T.);
#270=ORIENTED_EDGE('',*,*,#338,.T.);
#271=ORIENTED_EDGE('',*,*,#352,.F.);
#272=ORIENTED_EDGE('',*,*,#328,.F.);
#273=ORIENTED_EDGE('',*,*,#352,.T.);
#274=ORIENTED_EDGE('',*,*,#341,.T.);
#275=ORIENTED_EDGE('',*,*,#353,.F.);
#276=ORIENTED_EDGE('',*,*,#325,.F.);
#277=ORIENTED_EDGE('',*,*,#353,.T.);
#278=ORIENTED_EDGE('',*,*,#340,.T.);
#279=ORIENTED_EDGE('',*,*,#350,.F.);
#280=ORIENTED_EDGE('',*,*,#316,.T.);
#281=ORIENTED_EDGE('',*,*,#329,.F.);
#282=VERTEX_POINT('',#512);
#283=VERTEX_POINT('',#514);
#284=VERTEX_POINT('',#517);
#285=VERTEX_POINT('',#519);
#286=VERTEX_POINT('',#524);
#287=VERTEX_POINT('',#526);
#288=VERTEX_POINT('',#527);
#289=VERTEX_POINT('',#529);
#290=VERTEX_POINT('',#531);
#291=VERTEX_POINT('',#534);
#292=VERTEX_POINT('',#535);
#293=VERTEX_POINT('',#537);
#294=VERTEX_POINT('',#539);
#295=VERTEX_POINT('',#542);
#296=VERTEX_POINT('',#543);
#297=VERTEX_POINT('',#545);
#298=VERTEX_POINT('',#547);
#299=VERTEX_POINT('',#551);
#300=VERTEX_POINT('',#553);
#301=VERTEX_POINT('',#554);
#302=VERTEX_POINT('',#556);
#303=VERTEX_POINT('',#558);
#304=VERTEX_POINT('',#561);
#305=VERTEX_POINT('',#562);
#306=VERTEX_POINT('',#564);
#307=VERTEX_POINT('',#566);
#308=VERTEX_POINT('',#569);
#309=VERTEX_POINT('',#570);
#310=VERTEX_POINT('',#572);
#311=VERTEX_POINT('',#574);
#312=EDGE_CURVE('',#282,#282,#354,.T.);
#313=EDGE_CURVE('',#283,#283,#355,.T.);
#314=EDGE_CURVE('',#284,#284,#356,.T.);
#315=EDGE_CURVE('',#285,#285,#357,.T.);
#316=EDGE_CURVE('',#286,#286,#358,.T.);
#317=EDGE_CURVE('',#287,#288,#43,.T.);
#318=EDGE_CURVE('',#289,#287,#359,.T.);
#319=EDGE_CURVE('',#290,#289,#44,.T.);
#320=EDGE_CURVE('',#288,#290,#360,.T.);
#321=EDGE_CURVE('',#291,#292,#361,.T.);
#322=EDGE_CURVE('',#292,#293,#45,.T.);
#323=EDGE_CURVE('',#293,#294,#362,.T.);
#324=EDGE_CURVE('',#291,#294,#46,.T.);
#325=EDGE_CURVE('',#295,#296,#47,.T.);
#326=EDGE_CURVE('',#296,#297,#363,.T.);
#327=EDGE_CURVE('',#297,#298,#48,.T.);
#328=EDGE_CURVE('',#298,#295,#364,.T.);
#329=EDGE_CURVE('',#299,#299,#365,.T.);
#330=EDGE_CURVE('',#300,#301,#49,.T.);
#331=EDGE_CURVE('',#301,#302,#366,.T.);
#332=EDGE_CURVE('',#302,#303,#50,.T.);
#333=EDGE_CURVE('',#303,#300,#367,.T.);
#334=EDGE_CURVE('',#304,#305,#51,.T.);
#335=EDGE_CURVE('',#304,#306,#368,.T.);
#336=EDGE_CURVE('',#306,#307,#52,.T.);
#337=EDGE_CURVE('',#307,#305,#369,.T.);
#338=EDGE_CURVE('',#308,#309,#53,.T.);
#339=EDGE_CURVE('',#310,#308,#370,.T.);
#340=EDGE_CURVE('',#311,#310,#54,.T.);
#341=EDGE_CURVE('',#309,#311,#371,.T.);
#342=EDGE_CURVE('',#306,#291,#55,.T.);
#343=EDGE_CURVE('',#294,#307,#56,.T.);
#344=EDGE_CURVE('',#292,#304,#57,.T.);
#345=EDGE_CURVE('',#305,#293,#58,.T.);
#346=EDGE_CURVE('',#288,#301,#59,.T.);
#347=EDGE_CURVE('',#287,#300,#60,.T.);
#348=EDGE_CURVE('',#290,#302,#61,.T.);
#349=EDGE_CURVE('',#289,#303,#62,.T.);
#350=EDGE_CURVE('',#296,#310,#63,.T.);
#351=EDGE_CURVE('',#297,#308,#64,.T.);
#352=EDGE_CURVE('',#298,#309,#65,.T.);
#353=EDGE_CURVE('',#295,#311,#66,.T.);
#354=CIRCLE('',#373,1.05);
#355=CIRCLE('',#374,2.095);
#356=CIRCLE('',#376,1.05);
#357=CIRCLE('',#377,2.095);
#358=CIRCLE('',#381,2.1);
#359=CIRCLE('',#382,2.05);
#360=CIRCLE('',#383,2.05);
#361=CIRCLE('',#384,6.);
#362=CIRCLE('',#385,6.);
#363=CIRCLE('',#386,2.05);
#364=CIRCLE('',#387,2.05);
#365=CIRCLE('',#389,2.1);
#366=CIRCLE('',#390,2.05);
#367=CIRCLE('',#391,2.05);
#368=CIRCLE('',#392,6.);
#369=CIRCLE('',#393,6.);
#370=CIRCLE('',#394,2.05);
#371=CIRCLE('',#395,2.05);
#372=AXIS2_PLACEMENT_3D('',#510,#410,#411);
#373=AXIS2_PLACEMENT_3D('',#511,#412,#413);
#374=AXIS2_PLACEMENT_3D('',#513,#414,#415);
#375=AXIS2_PLACEMENT_3D('',#515,#416,#417);
#376=AXIS2_PLACEMENT_3D('',#516,#418,#419);
#377=AXIS2_PLACEMENT_3D('',#518,#420,#421);
#378=AXIS2_PLACEMENT_3D('',#520,#422,#423);
#379=AXIS2_PLACEMENT_3D('',#521,#424,#425);
#380=AXIS2_PLACEMENT_3D('',#522,#426,#427);
#381=AXIS2_PLACEMENT_3D('',#523,#428,#429);
#382=AXIS2_PLACEMENT_3D('',#528,#431,#432);
#383=AXIS2_PLACEMENT_3D('',#532,#434,#435);
#384=AXIS2_PLACEMENT_3D('',#533,#436,#437);
#385=AXIS2_PLACEMENT_3D('',#538,#439,#440);
#386=AXIS2_PLACEMENT_3D('',#544,#443,#444);
#387=AXIS2_PLACEMENT_3D('',#548,#446,#447);
#388=AXIS2_PLACEMENT_3D('',#549,#448,#449);
#389=AXIS2_PLACEMENT_3D('',#550,#450,#451);
#390=AXIS2_PLACEMENT_3D('',#555,#453,#454);
#391=AXIS2_PLACEMENT_3D('',#559,#456,#457);
#392=AXIS2_PLACEMENT_3D('',#563,#459,#460);
#393=AXIS2_PLACEMENT_3D('',#567,#462,#463);
#394=AXIS2_PLACEMENT_3D('',#571,#465,#466);
#395=AXIS2_PLACEMENT_3D('',#575,#468,#469);
#396=AXIS2_PLACEMENT_3D('',#576,#470,#471);
#397=AXIS2_PLACEMENT_3D('',#579,#474,#475);
#398=AXIS2_PLACEMENT_3D('',#582,#478,#479);
#399=AXIS2_PLACEMENT_3D('',#583,#480,#481);
#400=AXIS2_PLACEMENT_3D('',#584,#482,#483);
#401=AXIS2_PLACEMENT_3D('',#587,#486,#487);
#402=AXIS2_PLACEMENT_3D('',#589,#489,#490);
#403=AXIS2_PLACEMENT_3D('',#591,#492,#493);
#404=AXIS2_PLACEMENT_3D('',#592,#494,#495);
#405=AXIS2_PLACEMENT_3D('',#595,#498,#499);
#406=AXIS2_PLACEMENT_3D('',#597,#501,#502);
#407=AXIS2_PLACEMENT_3D('',#599,#504,#505);
#408=AXIS2_PLACEMENT_3D('',#600,#506,#507);
#409=AXIS2_PLACEMENT_3D('',#601,#508,#509);
#410=DIRECTION('',(0.,0.,1.));
#411=DIRECTION('',(1.,0.,0.));
#412=DIRECTION('',(0.,-1.,0.));
#413=DIRECTION('',(-0.837169104331222,0.,-0.546944138603989));
#414=DIRECTION('',(0.,-1.,0.));
#415=DIRECTION('',(0.837169104331222,0.,0.546944138603989));
#416=DIRECTION('',(0.,1.,0.));
#417=DIRECTION('',(0.837169104331222,0.,0.546944138603989));
#418=DIRECTION('',(0.,-1.,0.));
#419=DIRECTION('',(-0.837169104331222,0.,-0.546944138603989));
#420=DIRECTION('',(0.,1.,0.));
#421=DIRECTION('',(0.837169104331222,0.,0.546944138603989));
#422=DIRECTION('',(0.,-1.,0.));
#423=DIRECTION('',(-0.837169104331222,0.,-0.546944138603989));
#424=DIRECTION('',(0.,1.,0.));
#425=DIRECTION('',(0.837169104331222,0.,0.546944138603989));
#426=DIRECTION('',(0.,-1.,0.));
#427=DIRECTION('',(-0.837169104331222,0.,-0.546944138603989));
#428=DIRECTION('',(0.,-1.,0.));
#429=DIRECTION('',(0.,0.,-1.));
#430=DIRECTION('',(-1.,0.,5.63785129692462E-16));
#431=DIRECTION('',(0.,-1.,0.));
#432=DIRECTION('',(0.,0.,1.));
#433=DIRECTION('',(1.,0.,-2.60208521396521E-16));
#434=DIRECTION('',(0.,-1.,0.));
#435=DIRECTION('',(0.,0.,1.));
#436=DIRECTION('',(0.,-1.,0.));
#437=DIRECTION('',(0.,0.,-1.));
#438=DIRECTION('',(-1.,0.,-1.17145536458252E-15));
#439=DIRECTION('',(0.,-1.,0.));
#440=DIRECTION('',(0.,0.,-1.));
#441=DIRECTION('',(-1.,0.,-1.17145536458252E-15));
#442=DIRECTION('',(-1.,0.,2.60208521396521E-16));
#443=DIRECTION('',(0.,1.,0.));
#444=DIRECTION('',(0.,0.,1.));
#445=DIRECTION('',(1.,0.,-4.33680868994202E-17));
#446=DIRECTION('',(0.,1.,0.));
#447=DIRECTION('',(0.,0.,1.));
#448=DIRECTION('',(0.,-1.,0.));
#449=DIRECTION('',(-1.,0.,1.22464679914735E-16));
#450=DIRECTION('',(0.,-1.,0.));
#451=DIRECTION('',(0.,0.,-1.));
#452=DIRECTION('',(-1.,0.,5.63785129692462E-16));
#453=DIRECTION('',(0.,-1.,0.));
#454=DIRECTION('',(0.,0.,1.));
#455=DIRECTION('',(1.,0.,-2.60208521396521E-16));
#456=DIRECTION('',(0.,-1.,0.));
#457=DIRECTION('',(0.,0.,1.));
#458=DIRECTION('',(-1.,0.,-1.17145536458252E-15));
#459=DIRECTION('',(0.,1.,0.));
#460=DIRECTION('',(0.,0.,-1.));
#461=DIRECTION('',(-1.,0.,1.22464679914735E-16));
#462=DIRECTION('',(0.,1.,0.));
#463=DIRECTION('',(0.,0.,-1.));
#464=DIRECTION('',(1.,0.,-4.33680868994202E-17));
#465=DIRECTION('',(0.,1.,0.));
#466=DIRECTION('',(0.,0.,1.));
#467=DIRECTION('',(-1.,0.,2.60208521396521E-16));
#468=DIRECTION('',(0.,1.,0.));
#469=DIRECTION('',(0.,0.,1.));
#470=DIRECTION('',(0.,-1.,0.));
#471=DIRECTION('',(-1.,0.,-1.17145536458252E-15));
#472=DIRECTION('',(0.,-1.,0.));
#473=DIRECTION('',(0.,1.,0.));
#474=DIRECTION('',(-1.22464679914735E-16,0.,-1.));
#475=DIRECTION('',(-1.,0.,1.22298005056365E-16));
#476=DIRECTION('',(0.,1.,0.));
#477=DIRECTION('',(0.,-1.,0.));
#478=DIRECTION('',(1.17145536458252E-15,0.,-1.));
#479=DIRECTION('',(-1.,0.,-1.17180570802233E-15));
#480=DIRECTION('',(0.,-1.,0.));
#481=DIRECTION('',(0.,0.,-1.));
#482=DIRECTION('',(0.,-1.,0.));
#483=DIRECTION('',(0.,0.,-1.));
#484=DIRECTION('',(0.,1.,0.));
#485=DIRECTION('',(0.,1.,0.));
#486=DIRECTION('',(5.63785129692462E-16,0.,1.));
#487=DIRECTION('',(1.,0.,-5.63785129692462E-16));
#488=DIRECTION('',(0.,1.,0.));
#489=DIRECTION('',(0.,-1.,0.));
#490=DIRECTION('',(0.,0.,-1.));
#491=DIRECTION('',(0.,1.,0.));
#492=DIRECTION('',(-2.60208521396521E-16,0.,-1.));
#493=DIRECTION('',(-1.,0.,2.60208521396521E-16));
#494=DIRECTION('',(0.,-1.,0.));
#495=DIRECTION('',(0.,0.,-1.));
#496=DIRECTION('',(0.,1.,0.));
#497=DIRECTION('',(0.,1.,0.));
#498=DIRECTION('',(0.,-1.,0.));
#499=DIRECTION('',(0.,0.,-1.));
#500=DIRECTION('',(0.,1.,0.));
#501=DIRECTION('',(-4.33680868994202E-17,0.,-1.));
#502=DIRECTION('',(-1.,0.,4.33680868994202E-17));
#503=DIRECTION('',(0.,1.,0.));
#504=DIRECTION('',(0.,-1.,0.));
#505=DIRECTION('',(0.,0.,-1.));
#506=DIRECTION('',(2.60208521396521E-16,0.,1.));
#507=DIRECTION('',(1.,0.,-2.60208521396521E-16));
#508=DIRECTION('',(0.,-1.,0.));
#509=DIRECTION('',(0.,0.,-1.));
#510=CARTESIAN_POINT('',(0.,0.,0.));
#511=CARTESIAN_POINT('',(0.,6.,0.));
#512=CARTESIAN_POINT('',(-0.879027559547784,6.,-0.574291345534188));
#513=CARTESIAN_POINT('',(0.,6.,0.));
#514=CARTESIAN_POINT('',(1.75386927357391,6.,1.14584797037536));
#515=CARTESIAN_POINT('',(0.,6.,0.));
#516=CARTESIAN_POINT('',(0.,0.,0.));
#517=CARTESIAN_POINT('',(-0.879027559547784,0.,-0.574291345534188));
#518=CARTESIAN_POINT('',(0.,0.,0.));
#519=CARTESIAN_POINT('',(1.75386927357391,0.,1.14584797037536));
#520=CARTESIAN_POINT('',(0.,0.,0.));
#521=CARTESIAN_POINT('',(0.,0.,0.));
#522=CARTESIAN_POINT('',(0.,6.,0.));
#523=CARTESIAN_POINT('',(1.37540797660923E-30,0.,-1.17410190622106E-15));
#524=CARTESIAN_POINT('',(1.37540797660923E-30,0.,-2.1));
#525=CARTESIAN_POINT('',(-15.,0.,2.05));
#526=CARTESIAN_POINT('',(-15.,0.,2.05));
#527=CARTESIAN_POINT('',(-25.,0.,2.05000000000001));
#528=CARTESIAN_POINT('',(-15.,0.,6.12323399573677E-16));
#529=CARTESIAN_POINT('',(-15.,0.,-2.05));
#530=CARTESIAN_POINT('',(-25.,0.,-2.05));
#531=CARTESIAN_POINT('',(-25.,0.,-2.05));
#532=CARTESIAN_POINT('',(-25.,0.,1.83697019872103E-15));
#533=CARTESIAN_POINT('',(1.37540797660924E-30,0.,-1.17410190622107E-15));
#534=CARTESIAN_POINT('',(-8.67361737988404E-16,0.,-6.));
#535=CARTESIAN_POINT('',(-6.93889390390723E-15,0.,6.));
#536=CARTESIAN_POINT('',(5.99999999999999,0.,6.00000000000001));
#537=CARTESIAN_POINT('',(-45.,0.,5.99999999999995));
#538=CARTESIAN_POINT('',(-45.,0.,-5.28053296898015E-14));
#539=CARTESIAN_POINT('',(-45.,0.,-6.00000000000005));
#540=CARTESIAN_POINT('',(6.00000000000001,0.,-5.99999999999999));
#541=CARTESIAN_POINT('',(-35.,0.,-2.05));
#542=CARTESIAN_POINT('',(-35.,0.,-2.05));
#543=CARTESIAN_POINT('',(-45.,0.,-2.04999999999999));
#544=CARTESIAN_POINT('',(-45.,0.,4.59242549680257E-15));
#545=CARTESIAN_POINT('',(-45.,0.,2.05));
#546=CARTESIAN_POINT('',(-45.,0.,2.05000000000001));
#547=CARTESIAN_POINT('',(-35.,0.,2.05000000000001));
#548=CARTESIAN_POINT('',(-35.,0.,3.36777869765522E-15));
#549=CARTESIAN_POINT('',(-45.,0.,4.59242549680257E-15));
#550=CARTESIAN_POINT('',(1.37540797660923E-30,1.5,-1.17410190622106E-15));
#551=CARTESIAN_POINT('',(1.37540797660923E-30,1.5,-2.1));
#552=CARTESIAN_POINT('',(-15.,1.5,2.05));
#553=CARTESIAN_POINT('',(-15.,1.5,2.05));
#554=CARTESIAN_POINT('',(-25.,1.5,2.05000000000001));
#555=CARTESIAN_POINT('',(-25.,1.5,1.83697019872103E-15));
#556=CARTESIAN_POINT('',(-25.,1.5,-2.05));
#557=CARTESIAN_POINT('',(-25.,1.5,-2.05));
#558=CARTESIAN_POINT('',(-15.,1.5,-2.05));
#559=CARTESIAN_POINT('',(-15.,1.5,6.12323399573677E-16));
#560=CARTESIAN_POINT('',(5.99999999999999,1.5,6.00000000000001));
#561=CARTESIAN_POINT('',(-6.93889390390723E-15,1.5,6.));
#562=CARTESIAN_POINT('',(-45.,1.5,5.99999999999995));
#563=CARTESIAN_POINT('',(1.37540797660924E-30,1.5,-1.17410190622107E-15));
#564=CARTESIAN_POINT('',(0.,1.5,-6.));
#565=CARTESIAN_POINT('',(-45.,1.5,-6.));
#566=CARTESIAN_POINT('',(-45.,1.5,-6.));
#567=CARTESIAN_POINT('',(-45.,1.5,-5.28053296898015E-14));
#568=CARTESIAN_POINT('',(-45.,1.5,2.05000000000001));
#569=CARTESIAN_POINT('',(-45.,1.5,2.05));
#570=CARTESIAN_POINT('',(-35.,1.5,2.05000000000001));
#571=CARTESIAN_POINT('',(-45.,1.5,4.59242549680257E-15));
#572=CARTESIAN_POINT('',(-45.,1.5,-2.04999999999999));
#573=CARTESIAN_POINT('',(-35.,1.5,-2.05));
#574=CARTESIAN_POINT('',(-35.,1.5,-2.05));
#575=CARTESIAN_POINT('',(-35.,1.5,3.36777869765522E-15));
#576=CARTESIAN_POINT('',(6.,1.5,7.02873218749514E-15));
#577=CARTESIAN_POINT('',(0.,0.,-6.));
#578=CARTESIAN_POINT('',(-45.,0.,-6.));
#579=CARTESIAN_POINT('',(-45.,0.,-6.));
#580=CARTESIAN_POINT('',(-7.02873218749514E-15,1.5,6.));
#581=CARTESIAN_POINT('',(-45.,0.,5.99999999999995));
#582=CARTESIAN_POINT('',(5.99999999999999,0.,6.00000000000001));
#583=CARTESIAN_POINT('',(1.37540797660924E-30,0.,-1.17410190622107E-15));
#584=CARTESIAN_POINT('',(-45.,0.,-5.28053296898015E-14));
#585=CARTESIAN_POINT('',(-25.,1.5,2.05000000000001));
#586=CARTESIAN_POINT('',(-15.,1.5,2.05));
#587=CARTESIAN_POINT('',(-15.,1.5,2.05));
#588=CARTESIAN_POINT('',(-25.,1.5,-2.05));
#589=CARTESIAN_POINT('',(-25.,1.5,1.83697019872103E-15));
#590=CARTESIAN_POINT('',(-15.,1.5,-2.05));
#591=CARTESIAN_POINT('',(-25.,1.5,-2.05));
#592=CARTESIAN_POINT('',(-15.,1.5,6.12323399573677E-16));
#593=CARTESIAN_POINT('',(-45.,1.5,-2.04999999999999));
#594=CARTESIAN_POINT('',(-45.,1.5,2.05));
#595=CARTESIAN_POINT('',(-45.,1.5,4.59242549680257E-15));
#596=CARTESIAN_POINT('',(-35.,1.5,2.05000000000001));
#597=CARTESIAN_POINT('',(-45.,1.5,2.05000000000001));
#598=CARTESIAN_POINT('',(-35.,1.5,-2.05));
#599=CARTESIAN_POINT('',(-35.,1.5,3.36777869765522E-15));
#600=CARTESIAN_POINT('',(-35.,1.5,-2.05));
#601=CARTESIAN_POINT('',(1.37540797660923E-30,1.5,-1.17410190622106E-15));
#602=MECHANICAL_DESIGN_GEOMETRIC_PRESENTATION_REPRESENTATION('',(#92,#93),
#603);
#603=(
GEOMETRIC_REPRESENTATION_CONTEXT(3)
GLOBAL_UNCERTAINTY_ASSIGNED_CONTEXT((#604))
GLOBAL_UNIT_ASSIGNED_CONTEXT((#610,#606,#605))
REPRESENTATION_CONTEXT('190717_HV_bracket_top&bot_v3',
'TOP_LEVEL_ASSEMBLY_PART')
);
#604=UNCERTAINTY_MEASURE_WITH_UNIT(LENGTH_MEASURE(2.E-5),#610,
'DISTANCE_ACCURACY_VALUE','Maximum Tolerance applied to model');
#605=(
NAMED_UNIT(*)
SI_UNIT($,.STERADIAN.)
SOLID_ANGLE_UNIT()
);
#606=(
CONVERSION_BASED_UNIT('DEGREE',#608)
NAMED_UNIT(#607)
PLANE_ANGLE_UNIT()
);
#607=DIMENSIONAL_EXPONENTS(0.,0.,0.,0.,0.,0.,0.);
#608=PLANE_ANGLE_MEASURE_WITH_UNIT(PLANE_ANGLE_MEASURE(0.0174532925),#609);
#609=(
NAMED_UNIT(*)
PLANE_ANGLE_UNIT()
SI_UNIT($,.RADIAN.)
);
#610=(
LENGTH_UNIT()
NAMED_UNIT(*)
SI_UNIT(.MILLI.,.METRE.)
);
ENDSEC;
END-ISO-10303-21;
