ISO-10303-21;
HEADER;
/* Generated by software containing ST-Developer
 * from STEP Tools, Inc. (www.steptools.com) 
 */
/* OPTION: using custom schema-name function */

FILE_DESCRIPTION(
/* description */ (''),
/* implementation_level */ '2;1');

FILE_NAME(
/* name */ 'ePic-Frame_L2-Cilinder.v3_Protezione-TEFLON.stp',
/* time_stamp */ '2025-05-13T16:16:13+02:00',
/* author */ (''),
/* organization */ (''),
/* preprocessor_version */ 'ST-DEVELOPER v19.4',
/* originating_system */ 'SIEMENS PLM Software NX2306.5001',
/* authorisation */ '');

FILE_SCHEMA (('AP203_CONFIGURATION_CONTROLLED_3D_DESIGN_OF_MECHANICAL_PARTS_AND_ASSEMBLIES_MIM_LF { 1 0 10303 403 2 1 2}'));
ENDSEC;

DATA;
#10=PROPERTY_DEFINITION_REPRESENTATION(#14,#12);
#11=PROPERTY_DEFINITION_REPRESENTATION(#15,#13);
#12=REPRESENTATION('',(#16),#414);
#13=REPRESENTATION('',(#17),#414);
#14=PROPERTY_DEFINITION('pmi validation property','',#73);
#15=PROPERTY_DEFINITION('pmi validation property','',#73);
#16=VALUE_REPRESENTATION_ITEM('number of annotations',COUNT_MEASURE(0.));
#17=VALUE_REPRESENTATION_ITEM('number of views',COUNT_MEASURE(0.));
#18=SHAPE_REPRESENTATION_RELATIONSHIP('None',
'relationship between ePic-Frame_L2-Cilinder.v3_objects-None and ePic-
Frame_L2-Cilinder.v3_objects-None',#84,#19);
#19=ADVANCED_BREP_SHAPE_REPRESENTATION(
'ePic-Frame_L2-Cilinder.v3_objects-None',(#101,#102),#414);
#20=APPLIED_APPROVAL_ASSIGNMENT(#32,(#74));
#21=APPLIED_APPROVAL_ASSIGNMENT(#33,(#76));
#22=APPLIED_APPROVAL_ASSIGNMENT(#34,(#46));
#23=APPROVAL_PERSON_ORGANIZATION(#38,#32,#26);
#24=APPROVAL_PERSON_ORGANIZATION(#39,#33,#27);
#25=APPROVAL_PERSON_ORGANIZATION(#40,#34,#28);
#26=APPROVAL_ROLE('approver');
#27=APPROVAL_ROLE('approver');
#28=APPROVAL_ROLE('approver');
#29=APPROVAL_DATE_TIME(#54,#32);
#30=APPROVAL_DATE_TIME(#55,#33);
#31=APPROVAL_DATE_TIME(#56,#34);
#32=APPROVAL(#35,' ');
#33=APPROVAL(#36,' ');
#34=APPROVAL(#37,' ');
#35=APPROVAL_STATUS('not_yet_approved');
#36=APPROVAL_STATUS('not_yet_approved');
#37=APPROVAL_STATUS('not_yet_approved');
#38=PERSON_AND_ORGANIZATION(#44,#41);
#39=PERSON_AND_ORGANIZATION(#44,#42);
#40=PERSON_AND_ORGANIZATION(#44,#43);
#41=ORGANIZATION(' ',' ',' ');
#42=ORGANIZATION(' ',' ',' ');
#43=ORGANIZATION(' ',' ',' ');
#44=PERSON(' ',' ',' ',(' '),$,$);
#45=APPLIED_SECURITY_CLASSIFICATION_ASSIGNMENT(#46,(#76));
#46=SECURITY_CLASSIFICATION(' ',' ',#47);
#47=SECURITY_CLASSIFICATION_LEVEL('confidential');
#48=APPLIED_DATE_AND_TIME_ASSIGNMENT(#52,#50,(#74));
#49=APPLIED_DATE_AND_TIME_ASSIGNMENT(#53,#51,(#46));
#50=DATE_TIME_ROLE('creation_date');
#51=DATE_TIME_ROLE('classification_date');
#52=DATE_AND_TIME(#67,#57);
#53=DATE_AND_TIME(#68,#58);
#54=DATE_AND_TIME(#69,#59);
#55=DATE_AND_TIME(#70,#60);
#56=DATE_AND_TIME(#71,#61);
#57=LOCAL_TIME(0,0,0.,#62);
#58=LOCAL_TIME(0,0,0.,#63);
#59=LOCAL_TIME(0,0,0.,#64);
#60=LOCAL_TIME(0,0,0.,#65);
#61=LOCAL_TIME(0,0,0.,#66);
#62=COORDINATED_UNIVERSAL_TIME_OFFSET(0,0,.BEHIND.);
#63=COORDINATED_UNIVERSAL_TIME_OFFSET(0,0,.BEHIND.);
#64=COORDINATED_UNIVERSAL_TIME_OFFSET(0,0,.BEHIND.);
#65=COORDINATED_UNIVERSAL_TIME_OFFSET(0,0,.BEHIND.);
#66=COORDINATED_UNIVERSAL_TIME_OFFSET(0,0,.BEHIND.);
#67=CALENDAR_DATE(0,1,1);
#68=CALENDAR_DATE(0,1,1);
#69=CALENDAR_DATE(0,1,1);
#70=CALENDAR_DATE(0,1,1);
#71=CALENDAR_DATE(0,1,1);
#72=SHAPE_DEFINITION_REPRESENTATION(#73,#84);
#73=PRODUCT_DEFINITION_SHAPE('','',#74);
#74=PRODUCT_DEFINITION(' ','',#76,#75);
#75=PRODUCT_DEFINITION_CONTEXT('part definition',#83,'design');
#76=PRODUCT_DEFINITION_FORMATION_WITH_SPECIFIED_SOURCE(' ',' ',#78,
 .NOT_KNOWN.);
#77=PRODUCT_RELATED_PRODUCT_CATEGORY('detail','',(#78));
#78=PRODUCT('ePic-Frame_L2-Cilinder.v3_objects',
'ePic-Frame_L2-Cilinder.v3_objects',' ',(#81));
#79=PRODUCT_CATEGORY('part',' ');
#80=PRODUCT_CATEGORY(' ','');
#81=PRODUCT_CONTEXT(' ',#83,'mechanical');
#82=APPLICATION_PROTOCOL_DEFINITION('international standard',
'config_control_design',2010,#83);
#83=APPLICATION_CONTEXT(
'configuration controlled 3D designs of mechanical parts and assemblie
s');
#84=SHAPE_REPRESENTATION('ePic-Frame_L2-Cilinder.v3_objects-None',(#281),
#414);
#85=PRESENTATION_LAYER_ASSIGNMENT('1','Layer 1',(#101,#102));
#86=STYLED_ITEM('',(#88),#101);
#87=STYLED_ITEM('',(#89),#102);
#88=PRESENTATION_STYLE_ASSIGNMENT((#90));
#89=PRESENTATION_STYLE_ASSIGNMENT((#91));
#90=SURFACE_STYLE_USAGE(.BOTH.,#92);
#91=SURFACE_STYLE_USAGE(.BOTH.,#93);
#92=SURFACE_SIDE_STYLE('',(#94));
#93=SURFACE_SIDE_STYLE('',(#95));
#94=SURFACE_STYLE_FILL_AREA(#96);
#95=SURFACE_STYLE_FILL_AREA(#97);
#96=FILL_AREA_STYLE('',(#98));
#97=FILL_AREA_STYLE('',(#99));
#98=FILL_AREA_STYLE_COLOUR('',#100);
#99=FILL_AREA_STYLE_COLOUR('',#100);
#100=COLOUR_RGB('medium carrot',0.901960784313726,0.482352941176471,0.0705882352941176);
#101=MANIFOLD_SOLID_BREP('',#103);
#102=MANIFOLD_SOLID_BREP('',#104);
#103=CLOSED_SHELL('',(#109,#110,#111,#112,#113,#114));
#104=CLOSED_SHELL('',(#115,#116,#117,#118,#119,#120));
#105=CYLINDRICAL_SURFACE('',#290,145.7);
#106=CYLINDRICAL_SURFACE('',#291,145.6);
#107=CYLINDRICAL_SURFACE('',#300,145.7);
#108=CYLINDRICAL_SURFACE('',#301,145.6);
#109=ADVANCED_FACE('',(#129),#121,.F.);
#110=ADVANCED_FACE('',(#130),#122,.F.);
#111=ADVANCED_FACE('',(#131),#123,.T.);
#112=ADVANCED_FACE('',(#132),#124,.F.);
#113=ADVANCED_FACE('',(#133),#105,.T.);
#114=ADVANCED_FACE('',(#134),#106,.F.);
#115=ADVANCED_FACE('',(#135),#125,.F.);
#116=ADVANCED_FACE('',(#136),#126,.F.);
#117=ADVANCED_FACE('',(#137),#127,.T.);
#118=ADVANCED_FACE('',(#138),#128,.F.);
#119=ADVANCED_FACE('',(#139),#107,.T.);
#120=ADVANCED_FACE('',(#140),#108,.F.);
#121=PLANE('',#284);
#122=PLANE('',#287);
#123=PLANE('',#288);
#124=PLANE('',#289);
#125=PLANE('',#294);
#126=PLANE('',#297);
#127=PLANE('',#298);
#128=PLANE('',#299);
#129=FACE_OUTER_BOUND('',#141,.T.);
#130=FACE_OUTER_BOUND('',#142,.T.);
#131=FACE_OUTER_BOUND('',#143,.T.);
#132=FACE_OUTER_BOUND('',#144,.T.);
#133=FACE_OUTER_BOUND('',#145,.T.);
#134=FACE_OUTER_BOUND('',#146,.T.);
#135=FACE_OUTER_BOUND('',#147,.T.);
#136=FACE_OUTER_BOUND('',#148,.T.);
#137=FACE_OUTER_BOUND('',#149,.T.);
#138=FACE_OUTER_BOUND('',#150,.T.);
#139=FACE_OUTER_BOUND('',#151,.T.);
#140=FACE_OUTER_BOUND('',#152,.T.);
#141=EDGE_LOOP('',(#161,#162,#163,#164));
#142=EDGE_LOOP('',(#165,#166,#167,#168));
#143=EDGE_LOOP('',(#169,#170,#171,#172));
#144=EDGE_LOOP('',(#173,#174,#175,#176));
#145=EDGE_LOOP('',(#177,#178,#179,#180));
#146=EDGE_LOOP('',(#181,#182,#183,#184));
#147=EDGE_LOOP('',(#185,#186,#187,#188));
#148=EDGE_LOOP('',(#189,#190,#191,#192));
#149=EDGE_LOOP('',(#193,#194,#195,#196));
#150=EDGE_LOOP('',(#197,#198,#199,#200));
#151=EDGE_LOOP('',(#201,#202,#203,#204));
#152=EDGE_LOOP('',(#205,#206,#207,#208));
#153=CIRCLE('',#282,145.6);
#154=CIRCLE('',#283,145.7);
#155=CIRCLE('',#285,145.6);
#156=CIRCLE('',#286,145.7);
#157=CIRCLE('',#292,145.7);
#158=CIRCLE('',#293,145.6);
#159=CIRCLE('',#295,145.7);
#160=CIRCLE('',#296,145.6);
#161=ORIENTED_EDGE('',*,*,#225,.T.);
#162=ORIENTED_EDGE('',*,*,#226,.T.);
#163=ORIENTED_EDGE('',*,*,#227,.T.);
#164=ORIENTED_EDGE('',*,*,#228,.F.);
#165=ORIENTED_EDGE('',*,*,#229,.F.);
#166=ORIENTED_EDGE('',*,*,#230,.F.);
#167=ORIENTED_EDGE('',*,*,#231,.T.);
#168=ORIENTED_EDGE('',*,*,#232,.T.);
#169=ORIENTED_EDGE('',*,*,#225,.F.);
#170=ORIENTED_EDGE('',*,*,#233,.F.);
#171=ORIENTED_EDGE('',*,*,#231,.F.);
#172=ORIENTED_EDGE('',*,*,#234,.T.);
#173=ORIENTED_EDGE('',*,*,#227,.F.);
#174=ORIENTED_EDGE('',*,*,#235,.F.);
#175=ORIENTED_EDGE('',*,*,#229,.T.);
#176=ORIENTED_EDGE('',*,*,#236,.T.);
#177=ORIENTED_EDGE('',*,*,#233,.T.);
#178=ORIENTED_EDGE('',*,*,#228,.T.);
#179=ORIENTED_EDGE('',*,*,#236,.F.);
#180=ORIENTED_EDGE('',*,*,#232,.F.);
#181=ORIENTED_EDGE('',*,*,#226,.F.);
#182=ORIENTED_EDGE('',*,*,#234,.F.);
#183=ORIENTED_EDGE('',*,*,#230,.T.);
#184=ORIENTED_EDGE('',*,*,#235,.T.);
#185=ORIENTED_EDGE('',*,*,#237,.T.);
#186=ORIENTED_EDGE('',*,*,#238,.F.);
#187=ORIENTED_EDGE('',*,*,#239,.T.);
#188=ORIENTED_EDGE('',*,*,#240,.T.);
#189=ORIENTED_EDGE('',*,*,#241,.F.);
#190=ORIENTED_EDGE('',*,*,#242,.T.);
#191=ORIENTED_EDGE('',*,*,#243,.T.);
#192=ORIENTED_EDGE('',*,*,#244,.F.);
#193=ORIENTED_EDGE('',*,*,#237,.F.);
#194=ORIENTED_EDGE('',*,*,#245,.T.);
#195=ORIENTED_EDGE('',*,*,#243,.F.);
#196=ORIENTED_EDGE('',*,*,#246,.F.);
#197=ORIENTED_EDGE('',*,*,#239,.F.);
#198=ORIENTED_EDGE('',*,*,#247,.T.);
#199=ORIENTED_EDGE('',*,*,#241,.T.);
#200=ORIENTED_EDGE('',*,*,#248,.F.);
#201=ORIENTED_EDGE('',*,*,#246,.T.);
#202=ORIENTED_EDGE('',*,*,#242,.F.);
#203=ORIENTED_EDGE('',*,*,#247,.F.);
#204=ORIENTED_EDGE('',*,*,#238,.T.);
#205=ORIENTED_EDGE('',*,*,#240,.F.);
#206=ORIENTED_EDGE('',*,*,#248,.T.);
#207=ORIENTED_EDGE('',*,*,#244,.T.);
#208=ORIENTED_EDGE('',*,*,#245,.F.);
#209=VERTEX_POINT('',#362);
#210=VERTEX_POINT('',#363);
#211=VERTEX_POINT('',#365);
#212=VERTEX_POINT('',#367);
#213=VERTEX_POINT('',#371);
#214=VERTEX_POINT('',#372);
#215=VERTEX_POINT('',#374);
#216=VERTEX_POINT('',#376);
#217=VERTEX_POINT('',#388);
#218=VERTEX_POINT('',#389);
#219=VERTEX_POINT('',#391);
#220=VERTEX_POINT('',#393);
#221=VERTEX_POINT('',#397);
#222=VERTEX_POINT('',#398);
#223=VERTEX_POINT('',#400);
#224=VERTEX_POINT('',#402);
#225=EDGE_CURVE('',#209,#210,#249,.T.);
#226=EDGE_CURVE('',#210,#211,#153,.T.);
#227=EDGE_CURVE('',#211,#212,#250,.T.);
#228=EDGE_CURVE('',#209,#212,#154,.T.);
#229=EDGE_CURVE('',#213,#214,#251,.T.);
#230=EDGE_CURVE('',#215,#213,#155,.T.);
#231=EDGE_CURVE('',#215,#216,#252,.T.);
#232=EDGE_CURVE('',#216,#214,#156,.T.);
#233=EDGE_CURVE('',#216,#209,#253,.T.);
#234=EDGE_CURVE('',#215,#210,#254,.T.);
#235=EDGE_CURVE('',#213,#211,#255,.T.);
#236=EDGE_CURVE('',#214,#212,#256,.T.);
#237=EDGE_CURVE('',#217,#218,#257,.T.);
#238=EDGE_CURVE('',#219,#218,#157,.T.);
#239=EDGE_CURVE('',#219,#220,#258,.T.);
#240=EDGE_CURVE('',#220,#217,#158,.T.);
#241=EDGE_CURVE('',#221,#222,#259,.T.);
#242=EDGE_CURVE('',#221,#223,#159,.T.);
#243=EDGE_CURVE('',#223,#224,#260,.T.);
#244=EDGE_CURVE('',#222,#224,#160,.T.);
#245=EDGE_CURVE('',#217,#224,#261,.T.);
#246=EDGE_CURVE('',#218,#223,#262,.T.);
#247=EDGE_CURVE('',#219,#221,#263,.T.);
#248=EDGE_CURVE('',#220,#222,#264,.T.);
#249=LINE('',#361,#265);
#250=LINE('',#366,#266);
#251=LINE('',#370,#267);
#252=LINE('',#375,#268);
#253=LINE('',#379,#269);
#254=LINE('',#380,#270);
#255=LINE('',#382,#271);
#256=LINE('',#383,#272);
#257=LINE('',#387,#273);
#258=LINE('',#392,#274);
#259=LINE('',#396,#275);
#260=LINE('',#401,#276);
#261=LINE('',#405,#277);
#262=LINE('',#406,#278);
#263=LINE('',#408,#279);
#264=LINE('',#409,#280);
#265=VECTOR('',#304,1.);
#266=VECTOR('',#307,1.);
#267=VECTOR('',#312,1.);
#268=VECTOR('',#315,1.);
#269=VECTOR('',#320,1.);
#270=VECTOR('',#321,1.);
#271=VECTOR('',#324,1.);
#272=VECTOR('',#325,1.);
#273=VECTOR('',#332,1.);
#274=VECTOR('',#335,1.);
#275=VECTOR('',#340,1.);
#276=VECTOR('',#343,1.);
#277=VECTOR('',#348,1.);
#278=VECTOR('',#349,1.);
#279=VECTOR('',#352,1.);
#280=VECTOR('',#353,1.);
#281=AXIS2_PLACEMENT_3D('',#360,#302,#303);
#282=AXIS2_PLACEMENT_3D('',#364,#305,#306);
#283=AXIS2_PLACEMENT_3D('',#368,#308,#309);
#284=AXIS2_PLACEMENT_3D('',#369,#310,#311);
#285=AXIS2_PLACEMENT_3D('',#373,#313,#314);
#286=AXIS2_PLACEMENT_3D('',#377,#316,#317);
#287=AXIS2_PLACEMENT_3D('',#378,#318,#319);
#288=AXIS2_PLACEMENT_3D('',#381,#322,#323);
#289=AXIS2_PLACEMENT_3D('',#384,#326,#327);
#290=AXIS2_PLACEMENT_3D('',#385,#328,#329);
#291=AXIS2_PLACEMENT_3D('',#386,#330,#331);
#292=AXIS2_PLACEMENT_3D('',#390,#333,#334);
#293=AXIS2_PLACEMENT_3D('',#394,#336,#337);
#294=AXIS2_PLACEMENT_3D('',#395,#338,#339);
#295=AXIS2_PLACEMENT_3D('',#399,#341,#342);
#296=AXIS2_PLACEMENT_3D('',#403,#344,#345);
#297=AXIS2_PLACEMENT_3D('',#404,#346,#347);
#298=AXIS2_PLACEMENT_3D('',#407,#350,#351);
#299=AXIS2_PLACEMENT_3D('',#410,#354,#355);
#300=AXIS2_PLACEMENT_3D('',#411,#356,#357);
#301=AXIS2_PLACEMENT_3D('',#412,#358,#359);
#302=DIRECTION('',(0.,0.,1.));
#303=DIRECTION('',(1.,0.,0.));
#304=DIRECTION('',(0.0275671950395799,0.,-0.999619952660835));
#305=DIRECTION('',(0.,-1.,0.));
#306=DIRECTION('',(0.,0.,-1.));
#307=DIRECTION('',(-0.999976414104174,0.,0.00686813186813257));
#308=DIRECTION('',(0.,-1.,0.));
#309=DIRECTION('',(0.,0.,-1.));
#310=DIRECTION('',(0.,-1.,0.));
#311=DIRECTION('',(0.,0.,-1.));
#312=DIRECTION('',(-0.999976414104174,0.,0.00686813186813257));
#313=DIRECTION('',(0.,-1.,0.));
#314=DIRECTION('',(0.,0.,-1.));
#315=DIRECTION('',(-0.0275671950395799,0.,0.999619952660835));
#316=DIRECTION('',(0.,-1.,0.));
#317=DIRECTION('',(0.,0.,1.));
#318=DIRECTION('',(0.,1.,0.));
#319=DIRECTION('',(0.,0.,1.));
#320=DIRECTION('',(0.,1.,0.));
#321=DIRECTION('',(0.,1.,0.));
#322=DIRECTION('',(0.999619952660835,0.,0.0275671950395799));
#323=DIRECTION('',(0.,1.,0.));
#324=DIRECTION('',(0.,1.,0.));
#325=DIRECTION('',(0.,1.,0.));
#326=DIRECTION('',(0.00686813186813257,0.,0.999976414104174));
#327=DIRECTION('',(0.,1.,0.));
#328=DIRECTION('',(0.,1.,0.));
#329=DIRECTION('',(0.,0.,1.));
#330=DIRECTION('',(0.,1.,0.));
#331=DIRECTION('',(0.,0.,1.));
#332=DIRECTION('',(0.0275671950395799,0.,0.999619952660835));
#333=DIRECTION('',(0.,-1.,0.));
#334=DIRECTION('',(0.,0.,-1.));
#335=DIRECTION('',(-0.999976414104174,0.,-0.00686813186813257));
#336=DIRECTION('',(0.,-1.,0.));
#337=DIRECTION('',(0.,0.,-1.));
#338=DIRECTION('',(0.,-1.,0.));
#339=DIRECTION('',(0.,0.,-1.));
#340=DIRECTION('',(-0.999976414104174,0.,-0.00686813186813257));
#341=DIRECTION('',(0.,-1.,0.));
#342=DIRECTION('',(0.,0.,1.));
#343=DIRECTION('',(-0.0275671950395799,0.,-0.999619952660835));
#344=DIRECTION('',(0.,-1.,0.));
#345=DIRECTION('',(0.,0.,-1.));
#346=DIRECTION('',(0.,1.,0.));
#347=DIRECTION('',(0.,0.,1.));
#348=DIRECTION('',(0.,-1.,0.));
#349=DIRECTION('',(0.,-1.,0.));
#350=DIRECTION('',(-0.999619952660835,0.,0.0275671950395799));
#351=DIRECTION('',(0.,1.,0.));
#352=DIRECTION('',(0.,-1.,0.));
#353=DIRECTION('',(0.,-1.,0.));
#354=DIRECTION('',(-0.00686813186813257,0.,0.999976414104174));
#355=DIRECTION('',(0.,1.,0.));
#356=DIRECTION('',(0.,1.,0.));
#357=DIRECTION('',(0.,0.,1.));
#358=DIRECTION('',(0.,1.,0.));
#359=DIRECTION('',(0.,0.,1.));
#360=CARTESIAN_POINT('',(0.,0.,0.));
#361=CARTESIAN_POINT('',(-4.01378359776283,184.,145.544665107418));
#362=CARTESIAN_POINT('',(-4.01654031726678,184.,145.644627102684));
#363=CARTESIAN_POINT('',(-4.01378359776283,184.,145.544665107418));
#364=CARTESIAN_POINT('',(0.,184.,0.));
#365=CARTESIAN_POINT('',(-145.596565893568,184.,1.0000000000001));
#366=CARTESIAN_POINT('',(-145.596565893568,184.,1.0000000000001));
#367=CARTESIAN_POINT('',(-145.696563534978,184.,1.00068681318686));
#368=CARTESIAN_POINT('',(0.,184.,0.));
#369=CARTESIAN_POINT('',(0.,184.,0.));
#370=CARTESIAN_POINT('',(-145.596565893568,-169.,1.0000000000001));
#371=CARTESIAN_POINT('',(-145.596565893568,-169.,1.0000000000001));
#372=CARTESIAN_POINT('',(-145.696563534978,-169.,1.00068681318686));
#373=CARTESIAN_POINT('',(0.,-169.,0.));
#374=CARTESIAN_POINT('',(-4.01378359776283,-169.,145.544665107418));
#375=CARTESIAN_POINT('',(-4.01378359776283,-169.,145.544665107418));
#376=CARTESIAN_POINT('',(-4.01654031726678,-169.,145.644627102684));
#377=CARTESIAN_POINT('',(0.,-169.,0.));
#378=CARTESIAN_POINT('',(0.,-169.,0.));
#379=CARTESIAN_POINT('',(-4.01654031726678,-169.,145.644627102684));
#380=CARTESIAN_POINT('',(-4.01378359776283,-169.,145.544665107418));
#381=CARTESIAN_POINT('',(-4.01378359776283,1578.09681497057,145.544665107418));
#382=CARTESIAN_POINT('',(-145.596565893568,-169.,1.0000000000001));
#383=CARTESIAN_POINT('',(-145.696563534978,-169.,1.00068681318686));
#384=CARTESIAN_POINT('',(-145.596565893568,1578.09681497057,1.0000000000001));
#385=CARTESIAN_POINT('',(0.,-169.,0.));
#386=CARTESIAN_POINT('',(0.,-169.,0.));
#387=CARTESIAN_POINT('',(4.01378359776283,184.,145.544665107418));
#388=CARTESIAN_POINT('',(4.01378359776283,184.,145.544665107418));
#389=CARTESIAN_POINT('',(4.01654031726678,184.,145.644627102684));
#390=CARTESIAN_POINT('',(0.,184.,0.));
#391=CARTESIAN_POINT('',(145.696563534978,184.,1.00068681318686));
#392=CARTESIAN_POINT('',(145.596565893568,184.,1.0000000000001));
#393=CARTESIAN_POINT('',(145.596565893568,184.,1.0000000000001));
#394=CARTESIAN_POINT('',(0.,184.,0.));
#395=CARTESIAN_POINT('',(0.,184.,0.));
#396=CARTESIAN_POINT('',(145.596565893568,-169.,1.0000000000001));
#397=CARTESIAN_POINT('',(145.696563534978,-169.,1.00068681318686));
#398=CARTESIAN_POINT('',(145.596565893568,-169.,1.0000000000001));
#399=CARTESIAN_POINT('',(0.,-169.,0.));
#400=CARTESIAN_POINT('',(4.01654031726678,-169.,145.644627102684));
#401=CARTESIAN_POINT('',(4.01378359776283,-169.,145.544665107418));
#402=CARTESIAN_POINT('',(4.01378359776283,-169.,145.544665107418));
#403=CARTESIAN_POINT('',(0.,-169.,0.));
#404=CARTESIAN_POINT('',(0.,-169.,0.));
#405=CARTESIAN_POINT('',(4.01378359776283,-169.,145.544665107418));
#406=CARTESIAN_POINT('',(4.01654031726678,-169.,145.644627102684));
#407=CARTESIAN_POINT('',(4.01378359776283,1578.09681497057,145.544665107418));
#408=CARTESIAN_POINT('',(145.696563534978,-169.,1.00068681318686));
#409=CARTESIAN_POINT('',(145.596565893568,-169.,1.0000000000001));
#410=CARTESIAN_POINT('',(145.596565893568,1578.09681497057,1.0000000000001));
#411=CARTESIAN_POINT('',(0.,-169.,0.));
#412=CARTESIAN_POINT('',(0.,-169.,0.));
#413=MECHANICAL_DESIGN_GEOMETRIC_PRESENTATION_REPRESENTATION('',(#86,#87),
#414);
#414=(
GEOMETRIC_REPRESENTATION_CONTEXT(3)
GLOBAL_UNCERTAINTY_ASSIGNED_CONTEXT((#415))
GLOBAL_UNIT_ASSIGNED_CONTEXT((#421,#417,#416))
REPRESENTATION_CONTEXT('ePic-Frame_L2-Cilinder',
'TOP_LEVEL_ASSEMBLY_PART')
);
#415=UNCERTAINTY_MEASURE_WITH_UNIT(LENGTH_MEASURE(2.E-5),#421,
'DISTANCE_ACCURACY_VALUE','Maximum Tolerance applied to model');
#416=(
NAMED_UNIT(*)
SI_UNIT($,.STERADIAN.)
SOLID_ANGLE_UNIT()
);
#417=(
CONVERSION_BASED_UNIT('DEGREE',#419)
NAMED_UNIT(#418)
PLANE_ANGLE_UNIT()
);
#418=DIMENSIONAL_EXPONENTS(0.,0.,0.,0.,0.,0.,0.);
#419=PLANE_ANGLE_MEASURE_WITH_UNIT(PLANE_ANGLE_MEASURE(0.0174532925),#420);
#420=(
NAMED_UNIT(*)
PLANE_ANGLE_UNIT()
SI_UNIT($,.RADIAN.)
);
#421=(
LENGTH_UNIT()
NAMED_UNIT(*)
SI_UNIT(.MILLI.,.METRE.)
);
ENDSEC;
END-ISO-10303-21;
