ISO-10303-21;
HEADER;
/* Generated by software containing ST-Developer
 * from STEP Tools, Inc. (www.steptools.com) 
 */
/* OPTION: using custom schema-name function */

FILE_DESCRIPTION(
/* description */ (''),
/* implementation_level */ '2;1');

FILE_NAME(
/* name */ 'ePic-L2_FPCcableright&leftSupport-eSide.v2-POLYMIDE.stp',
/* time_stamp */ '2025-05-13T15:08:29+02:00',
/* author */ (''),
/* organization */ (''),
/* preprocessor_version */ 'ST-DEVELOPER v19.4',
/* originating_system */ 'SIEMENS PLM Software NX2306.5001',
/* authorisation */ '');

FILE_SCHEMA (('AP203_CONFIGURATION_CONTROLLED_3D_DESIGN_OF_MECHANICAL_PARTS_AND_ASSEMBLIES_MIM_LF { 1 0 10303 403 2 1 2}'));
ENDSEC;

DATA;
#10=PROPERTY_DEFINITION_REPRESENTATION(#14,#12);
#11=PROPERTY_DEFINITION_REPRESENTATION(#15,#13);
#12=REPRESENTATION('',(#16),#253);
#13=REPRESENTATION('',(#17),#253);
#14=PROPERTY_DEFINITION('pmi validation property','',#73);
#15=PROPERTY_DEFINITION('pmi validation property','',#73);
#16=VALUE_REPRESENTATION_ITEM('number of annotations',COUNT_MEASURE(0.));
#17=VALUE_REPRESENTATION_ITEM('number of views',COUNT_MEASURE(0.));
#18=SHAPE_REPRESENTATION_RELATIONSHIP('None',
'relationship between ePic-L2_FPCcableright&leftSupport-eSide.v2_objec
ts-None and ePic-L2_FPCcableright&leftSupport-eSide.v2_objects-None',#84,
#19);
#19=ADVANCED_BREP_SHAPE_REPRESENTATION(
'ePic-L2_FPCcableright&leftSupport-eSide.v2_objects-None',(#94),#253);
#20=APPLIED_APPROVAL_ASSIGNMENT(#32,(#74));
#21=APPLIED_APPROVAL_ASSIGNMENT(#33,(#76));
#22=APPLIED_APPROVAL_ASSIGNMENT(#34,(#46));
#23=APPROVAL_PERSON_ORGANIZATION(#38,#32,#26);
#24=APPROVAL_PERSON_ORGANIZATION(#39,#33,#27);
#25=APPROVAL_PERSON_ORGANIZATION(#40,#34,#28);
#26=APPROVAL_ROLE('approver');
#27=APPROVAL_ROLE('approver');
#28=APPROVAL_ROLE('approver');
#29=APPROVAL_DATE_TIME(#54,#32);
#30=APPROVAL_DATE_TIME(#55,#33);
#31=APPROVAL_DATE_TIME(#56,#34);
#32=APPROVAL(#35,' ');
#33=APPROVAL(#36,' ');
#34=APPROVAL(#37,' ');
#35=APPROVAL_STATUS('not_yet_approved');
#36=APPROVAL_STATUS('not_yet_approved');
#37=APPROVAL_STATUS('not_yet_approved');
#38=PERSON_AND_ORGANIZATION(#44,#41);
#39=PERSON_AND_ORGANIZATION(#44,#42);
#40=PERSON_AND_ORGANIZATION(#44,#43);
#41=ORGANIZATION(' ',' ',' ');
#42=ORGANIZATION(' ',' ',' ');
#43=ORGANIZATION(' ',' ',' ');
#44=PERSON(' ',' ',' ',(' '),$,$);
#45=APPLIED_SECURITY_CLASSIFICATION_ASSIGNMENT(#46,(#76));
#46=SECURITY_CLASSIFICATION(' ',' ',#47);
#47=SECURITY_CLASSIFICATION_LEVEL('confidential');
#48=APPLIED_DATE_AND_TIME_ASSIGNMENT(#52,#50,(#74));
#49=APPLIED_DATE_AND_TIME_ASSIGNMENT(#53,#51,(#46));
#50=DATE_TIME_ROLE('creation_date');
#51=DATE_TIME_ROLE('classification_date');
#52=DATE_AND_TIME(#67,#57);
#53=DATE_AND_TIME(#68,#58);
#54=DATE_AND_TIME(#69,#59);
#55=DATE_AND_TIME(#70,#60);
#56=DATE_AND_TIME(#71,#61);
#57=LOCAL_TIME(0,0,0.,#62);
#58=LOCAL_TIME(0,0,0.,#63);
#59=LOCAL_TIME(0,0,0.,#64);
#60=LOCAL_TIME(0,0,0.,#65);
#61=LOCAL_TIME(0,0,0.,#66);
#62=COORDINATED_UNIVERSAL_TIME_OFFSET(0,0,.BEHIND.);
#63=COORDINATED_UNIVERSAL_TIME_OFFSET(0,0,.BEHIND.);
#64=COORDINATED_UNIVERSAL_TIME_OFFSET(0,0,.BEHIND.);
#65=COORDINATED_UNIVERSAL_TIME_OFFSET(0,0,.BEHIND.);
#66=COORDINATED_UNIVERSAL_TIME_OFFSET(0,0,.BEHIND.);
#67=CALENDAR_DATE(0,1,1);
#68=CALENDAR_DATE(0,1,1);
#69=CALENDAR_DATE(0,1,1);
#70=CALENDAR_DATE(0,1,1);
#71=CALENDAR_DATE(0,1,1);
#72=SHAPE_DEFINITION_REPRESENTATION(#73,#84);
#73=PRODUCT_DEFINITION_SHAPE('','',#74);
#74=PRODUCT_DEFINITION(' ','',#76,#75);
#75=PRODUCT_DEFINITION_CONTEXT('part definition',#83,'design');
#76=PRODUCT_DEFINITION_FORMATION_WITH_SPECIFIED_SOURCE(' ',' ',#78,
 .NOT_KNOWN.);
#77=PRODUCT_RELATED_PRODUCT_CATEGORY('detail','',(#78));
#78=PRODUCT('ePic-L2_FPCcableright&leftSupport-eSide.v2_objects',
'ePic-L2_FPCcableright&leftSupport-eSide.v2_objects',' ',(#81));
#79=PRODUCT_CATEGORY('part',' ');
#80=PRODUCT_CATEGORY(' ','');
#81=PRODUCT_CONTEXT(' ',#83,'mechanical');
#82=APPLICATION_PROTOCOL_DEFINITION('international standard',
'config_control_design',2010,#83);
#83=APPLICATION_CONTEXT(
'configuration controlled 3D designs of mechanical parts and assemblie
s');
#84=SHAPE_REPRESENTATION(
'ePic-L2_FPCcableright&leftSupport-eSide.v2_objects-None',(#184),#253);
#85=PRESENTATION_LAYER_ASSIGNMENT('1','Layer 1',(#94));
#86=STYLED_ITEM('',(#87),#94);
#87=PRESENTATION_STYLE_ASSIGNMENT((#88));
#88=SURFACE_STYLE_USAGE(.BOTH.,#89);
#89=SURFACE_SIDE_STYLE('',(#90));
#90=SURFACE_STYLE_FILL_AREA(#91);
#91=FILL_AREA_STYLE('',(#92));
#92=FILL_AREA_STYLE_COLOUR('',#93);
#93=COLOUR_RGB('emerald',0.,0.6,0.);
#94=MANIFOLD_SOLID_BREP('',#95);
#95=CLOSED_SHELL('',(#98,#99,#100,#101,#102,#103));
#96=CYLINDRICAL_SURFACE('',#193,125.335);
#97=CYLINDRICAL_SURFACE('',#194,125.2);
#98=ADVANCED_FACE('',(#108),#104,.F.);
#99=ADVANCED_FACE('',(#109),#105,.T.);
#100=ADVANCED_FACE('',(#110),#106,.T.);
#101=ADVANCED_FACE('',(#111),#107,.F.);
#102=ADVANCED_FACE('',(#112),#96,.T.);
#103=ADVANCED_FACE('',(#113),#97,.F.);
#104=PLANE('',#187);
#105=PLANE('',#188);
#106=PLANE('',#191);
#107=PLANE('',#192);
#108=FACE_OUTER_BOUND('',#114,.T.);
#109=FACE_OUTER_BOUND('',#115,.T.);
#110=FACE_OUTER_BOUND('',#116,.T.);
#111=FACE_OUTER_BOUND('',#117,.T.);
#112=FACE_OUTER_BOUND('',#118,.T.);
#113=FACE_OUTER_BOUND('',#119,.T.);
#114=EDGE_LOOP('',(#124,#125,#126,#127));
#115=EDGE_LOOP('',(#128,#129,#130,#131));
#116=EDGE_LOOP('',(#132,#133,#134,#135));
#117=EDGE_LOOP('',(#136,#137,#138,#139));
#118=EDGE_LOOP('',(#140,#141,#142,#143));
#119=EDGE_LOOP('',(#144,#145,#146,#147));
#120=CIRCLE('',#185,125.2);
#121=CIRCLE('',#186,125.335);
#122=CIRCLE('',#189,125.2);
#123=CIRCLE('',#190,125.335);
#124=ORIENTED_EDGE('',*,*,#156,.F.);
#125=ORIENTED_EDGE('',*,*,#157,.F.);
#126=ORIENTED_EDGE('',*,*,#158,.T.);
#127=ORIENTED_EDGE('',*,*,#159,.T.);
#128=ORIENTED_EDGE('',*,*,#158,.F.);
#129=ORIENTED_EDGE('',*,*,#160,.T.);
#130=ORIENTED_EDGE('',*,*,#161,.T.);
#131=ORIENTED_EDGE('',*,*,#162,.F.);
#132=ORIENTED_EDGE('',*,*,#161,.F.);
#133=ORIENTED_EDGE('',*,*,#163,.T.);
#134=ORIENTED_EDGE('',*,*,#164,.T.);
#135=ORIENTED_EDGE('',*,*,#165,.F.);
#136=ORIENTED_EDGE('',*,*,#166,.F.);
#137=ORIENTED_EDGE('',*,*,#156,.T.);
#138=ORIENTED_EDGE('',*,*,#167,.T.);
#139=ORIENTED_EDGE('',*,*,#164,.F.);
#140=ORIENTED_EDGE('',*,*,#165,.T.);
#141=ORIENTED_EDGE('',*,*,#167,.F.);
#142=ORIENTED_EDGE('',*,*,#159,.F.);
#143=ORIENTED_EDGE('',*,*,#162,.T.);
#144=ORIENTED_EDGE('',*,*,#163,.F.);
#145=ORIENTED_EDGE('',*,*,#160,.F.);
#146=ORIENTED_EDGE('',*,*,#157,.T.);
#147=ORIENTED_EDGE('',*,*,#166,.T.);
#148=VERTEX_POINT('',#227);
#149=VERTEX_POINT('',#228);
#150=VERTEX_POINT('',#230);
#151=VERTEX_POINT('',#232);
#152=VERTEX_POINT('',#236);
#153=VERTEX_POINT('',#238);
#154=VERTEX_POINT('',#242);
#155=VERTEX_POINT('',#244);
#156=EDGE_CURVE('',#148,#149,#168,.T.);
#157=EDGE_CURVE('',#150,#148,#120,.T.);
#158=EDGE_CURVE('',#150,#151,#169,.T.);
#159=EDGE_CURVE('',#151,#149,#121,.T.);
#160=EDGE_CURVE('',#150,#152,#170,.T.);
#161=EDGE_CURVE('',#152,#153,#171,.T.);
#162=EDGE_CURVE('',#151,#153,#172,.T.);
#163=EDGE_CURVE('',#152,#154,#122,.T.);
#164=EDGE_CURVE('',#154,#155,#173,.T.);
#165=EDGE_CURVE('',#153,#155,#123,.T.);
#166=EDGE_CURVE('',#148,#154,#174,.T.);
#167=EDGE_CURVE('',#149,#155,#175,.T.);
#168=LINE('',#226,#176);
#169=LINE('',#231,#177);
#170=LINE('',#235,#178);
#171=LINE('',#237,#179);
#172=LINE('',#239,#180);
#173=LINE('',#243,#181);
#174=LINE('',#247,#182);
#175=LINE('',#248,#183);
#176=VECTOR('',#197,1.);
#177=VECTOR('',#200,1.);
#178=VECTOR('',#205,1.);
#179=VECTOR('',#206,1.);
#180=VECTOR('',#207,1.);
#181=VECTOR('',#212,1.);
#182=VECTOR('',#217,1.);
#183=VECTOR('',#218,1.);
#184=AXIS2_PLACEMENT_3D('',#225,#195,#196);
#185=AXIS2_PLACEMENT_3D('',#229,#198,#199);
#186=AXIS2_PLACEMENT_3D('',#233,#201,#202);
#187=AXIS2_PLACEMENT_3D('',#234,#203,#204);
#188=AXIS2_PLACEMENT_3D('',#240,#208,#209);
#189=AXIS2_PLACEMENT_3D('',#241,#210,#211);
#190=AXIS2_PLACEMENT_3D('',#245,#213,#214);
#191=AXIS2_PLACEMENT_3D('',#246,#215,#216);
#192=AXIS2_PLACEMENT_3D('',#249,#219,#220);
#193=AXIS2_PLACEMENT_3D('',#250,#221,#222);
#194=AXIS2_PLACEMENT_3D('',#251,#223,#224);
#195=DIRECTION('',(0.,0.,1.));
#196=DIRECTION('',(1.,0.,0.));
#197=DIRECTION('',(0.999872400478234,0.,0.0159744408945719));
#198=DIRECTION('',(0.,1.,0.));
#199=DIRECTION('',(1.,0.,6.12323399573677E-17));
#200=DIRECTION('',(-0.999872400478234,0.,0.015974440894571));
#201=DIRECTION('',(0.,1.,0.));
#202=DIRECTION('',(0.,0.,-1.));
#203=DIRECTION('',(0.,-1.,0.));
#204=DIRECTION('',(0.,0.,-1.));
#205=DIRECTION('',(0.,-1.,0.));
#206=DIRECTION('',(-0.999872400478234,0.,0.015974440894571));
#207=DIRECTION('',(0.,-1.,0.));
#208=DIRECTION('',(-0.015974440894571,0.,-0.999872400478234));
#209=DIRECTION('',(0.,-1.,0.));
#210=DIRECTION('',(0.,1.,0.));
#211=DIRECTION('',(1.,0.,6.12323399573677E-17));
#212=DIRECTION('',(0.999872400478234,0.,0.0159744408945719));
#213=DIRECTION('',(0.,1.,0.));
#214=DIRECTION('',(0.,0.,-1.));
#215=DIRECTION('',(0.,-1.,0.));
#216=DIRECTION('',(0.,0.,-1.));
#217=DIRECTION('',(0.,-1.,0.));
#218=DIRECTION('',(0.,-1.,0.));
#219=DIRECTION('',(-0.0159744408945719,0.,0.999872400478234));
#220=DIRECTION('',(0.,-1.,0.));
#221=DIRECTION('',(0.,-1.,0.));
#222=DIRECTION('',(0.,0.,-1.));
#223=DIRECTION('',(0.,-1.,0.));
#224=DIRECTION('',(0.,0.,-1.));
#225=CARTESIAN_POINT('',(0.,0.,0.));
#226=CARTESIAN_POINT('',(125.184024539875,-132.5,2.0000000000004));
#227=CARTESIAN_POINT('',(125.184024539875,-132.5,2.0000000000004));
#228=CARTESIAN_POINT('',(125.319007313939,-132.5,2.00215654952118));
#229=CARTESIAN_POINT('',(0.,-132.5,0.));
#230=CARTESIAN_POINT('',(-125.184024539875,-132.5,2.00000000000028));
#231=CARTESIAN_POINT('',(-125.184024539875,-132.5,2.00000000000028));
#232=CARTESIAN_POINT('',(-125.319007313939,-132.5,2.00215654952104));
#233=CARTESIAN_POINT('',(0.,-132.5,0.));
#234=CARTESIAN_POINT('',(0.,-132.5,0.));
#235=CARTESIAN_POINT('',(-125.184024539875,-132.5,2.00000000000028));
#236=CARTESIAN_POINT('',(-125.184024539875,-166.5,2.00000000000028));
#237=CARTESIAN_POINT('',(-125.184024539875,-166.5,2.00000000000028));
#238=CARTESIAN_POINT('',(-125.319007313939,-166.5,2.00215654952104));
#239=CARTESIAN_POINT('',(-125.319007313939,-132.5,2.00215654952104));
#240=CARTESIAN_POINT('',(-125.184024539875,-149.5,2.00000000000028));
#241=CARTESIAN_POINT('',(0.,-166.5,0.));
#242=CARTESIAN_POINT('',(125.184024539875,-166.5,2.0000000000004));
#243=CARTESIAN_POINT('',(125.184024539875,-166.5,2.0000000000004));
#244=CARTESIAN_POINT('',(125.319007313939,-166.5,2.00215654952118));
#245=CARTESIAN_POINT('',(0.,-166.5,0.));
#246=CARTESIAN_POINT('',(0.,-166.5,0.));
#247=CARTESIAN_POINT('',(125.184024539875,-132.5,2.0000000000004));
#248=CARTESIAN_POINT('',(125.319007313939,-132.5,2.00215654952118));
#249=CARTESIAN_POINT('',(125.184024539875,-149.5,2.0000000000004));
#250=CARTESIAN_POINT('',(0.,-132.5,0.));
#251=CARTESIAN_POINT('',(0.,-132.5,0.));
#252=MECHANICAL_DESIGN_GEOMETRIC_PRESENTATION_REPRESENTATION('',(#86),#253);
#253=(
GEOMETRIC_REPRESENTATION_CONTEXT(3)
GLOBAL_UNCERTAINTY_ASSIGNED_CONTEXT((#254))
GLOBAL_UNIT_ASSIGNED_CONTEXT((#260,#256,#255))
REPRESENTATION_CONTEXT('ePic-L2_FPCcableright&leftSupport-eSide',
'TOP_LEVEL_ASSEMBLY_PART')
);
#254=UNCERTAINTY_MEASURE_WITH_UNIT(LENGTH_MEASURE(2.E-5),#260,
'DISTANCE_ACCURACY_VALUE','Maximum Tolerance applied to model');
#255=(
NAMED_UNIT(*)
SI_UNIT($,.STERADIAN.)
SOLID_ANGLE_UNIT()
);
#256=(
CONVERSION_BASED_UNIT('DEGREE',#258)
NAMED_UNIT(#257)
PLANE_ANGLE_UNIT()
);
#257=DIMENSIONAL_EXPONENTS(0.,0.,0.,0.,0.,0.,0.);
#258=PLANE_ANGLE_MEASURE_WITH_UNIT(PLANE_ANGLE_MEASURE(0.0174532925),#259);
#259=(
NAMED_UNIT(*)
PLANE_ANGLE_UNIT()
SI_UNIT($,.RADIAN.)
);
#260=(
LENGTH_UNIT()
NAMED_UNIT(*)
SI_UNIT(.MILLI.,.METRE.)
);
ENDSEC;
END-ISO-10303-21;
